» » »

Stupid Songs Tabs (ver.2)

Artists:  A B C D E F G H I J K L M N O P Q R S T U V W X Y Z # 

Stupid Songs Tabs (ver.2)

Dayglo Abortions
Rating:
0/5 (0 votes)

Hard to play? Try these video lessons and learn fast.
                
riff1
|----------------------------------------------------------------|
|----------------------------------------------------------------|
|-4----------------7----------------9----------------------------|
|-2----------------5----------------7----------------------------|
|----------------------------------------------------5-6-7-5-6-7-|
|---00000000000000---00000000000000---00000000000000-3-4-5-3-4-5-|


fill
|-------------|
|-------------|
|-------------|
|-------------|
|-222222222---|
|-------------|

riff 2
|-----------------------------------------------------|
|-----------------------------------------------------|
|-4-4--4-7-6-5-4-4--4-------4-4--4-7-6-5-4-4--4-------|
|-2-2--2-5-4-3-2-2--2-7-6-5-2-2--2-5-4-3-2-2--2-------|
|---------------------5-4-3---------------------5-6-7-|
|-----------------------------------------------3-4-5-|


riff 3
|--------------|-----------------------------|
|--(3x)--------|-----------------------------|
|--------------|-----------------------------|
|-4-4--4-7-----|-9-8-7-9-8-7-9-8-7-9-8-7-9---|
|-2-2--2-5-5-7-|-7-6-5-7-6-5-7-6-5-7-6-5-7---|
|----------3-5-|-----------------------------|


riff 4
|-------------------------------------------------------|
|-------------------------------------------------------|
|-------------------------------------------------------|
|-2-2-22-2-2-22-5-5-55-5-5-55-7-7-77-7-7-77-------------|
|-------------------------------------------5-6-7-5-6-7-|
|-------------------------------------------3-4-5-3-4-5-|
            
Hard to play? Try these video lessons and learn fast. | Correct




comments powered by Disqus
↑ Back to top | Tablatures and chords are parodies/interpretations of the original songs. You may use it for private study, scholarship, research or language learning purposes only