» » »

Dayglo Abortions, Sit On My Face And Bleed Tabs (ver.1)

Artists:  A B C D E F G H I J K L M N O P Q R S T U V W X Y Z # 

Sit On My Face And Bleed Tabs (ver.1)

Dayglo Abortions Tabs
 Rating:
4/5 (4 votes)
Sit On My Face And Bleed lessons Tabs too difficult? Try these video lessons and learn fast
                
riff 1
|----------------------------------|
|----------------------------------|
|----------------------------------|
|-3-33-33-3-3-2-2-5555555555555555-|
|-1-11-11-1-1-0-0-3333333333333333-|
|----------------------------------|


riff 2
|---------------------------------|
|---------------------------------|
|---------------------------------|
|---------------------------------|
|----------------------------5--3-|
|-000000000000000000000000-0-3--1-|


riff 3
|---------------------------------------|
|---------------------------------------|
|-------------------------4-------4h5p4-|
|---------------------4-5---5-4---------|
|-----------------5h7-----------7-------|
|-0-0-0-0-0-0-0-0-----------------------|


riff 4
|-----------------|-----------------|
|-----------------|-----------------|
|-----------5-4---|-----------7-5---|
|-3-3-3-3-3-3-2-2-|-5-5-5-5-5-5-3-4-|
|-1-1-1-1-1-----0-|-3-3-3-3-3-----2-|
|-----------------|-----------------|
            
Submit corrections

comments powered by Disqus
↑ Back to top | Dayglo Abortions Tabs for Sit On My Face And Bleed. Lyrics for acoustic guitar and electric guitar. Tablatures and chords are parodies/interpretations of the original songs. You may use it for private study, scholarship, research or language learning purposes only