» » »

Shred Central Tabs (ver.1)

Artists:  A B C D E F G H I J K L M N O P Q R S T U V W X Y Z # 

Shred Central Tabs (ver.1)

Dayglo Abortions
Rating:
0/5 (0 votes)

Hard to play? Try these video lessons and learn fast.
                
riff 1
|---------------------------|
|---------------------------|
|---------------------------|
|------6-7--7-------7-6--6--|
|-7--7-4-5--5--7--7-5-4--4--|
|-5--5---------5--5---------|


riff 2
|----------------------------------------------------------|
|----------------------------------------------------------|
|--------------------------7-6-----------------------------|
|----------7-6-9-----------5-4-7-----------7-6-9--7-6------|
|-7--------5-4-7--7------------5--7--------5-4-7--5-4-7-5--|
|-5-555555--------5-555555--------5-555555------------5-3--|


riff 3
|----------------|
|----------------|
|----------------|
|----------------|
|-2--------5-4-7-|
|-0-000-00-3-2-5-|


riff 4
|-------------------------------------------------|
|-------------------------------------------------|
|-------------------------------------------------|
|---------8----8-8---8-8----------8----8-8------6-|
|---------7----7-7---7-7----------7----7-7----5---|
|-0-0-0-0-6-00-6-6-0-6-6--0-0-0-0-6-00-6-6--4-----|
            
Hard to play? Try these video lessons and learn fast. | Correct




comments powered by Disqus
↑ Back to top | Tablatures and chords are parodies/interpretations of the original songs. You may use it for private study, scholarship, research or language learning purposes only