» » »

Dayglo Abortions, Scientology Tabs (ver.1)

Artists:  A B C D E F G H I J K L M N O P Q R S T U V W X Y Z # 

Scientology Tabs (ver.1)

Dayglo Abortions Tabs
Rating:
0/5 (0 votes)
Scientology lessons Tabs too difficult? Try these video lessons and learn fast
                
riff 1
|----------------------------------------|
|----------------------------------------|
|----------------------------------------|
|----------------------------------------|
|-2-222222-777-5-555-2-222222-777-5-666--|
|-0-000000-555-3-333-0-000000-555-3-444--|


riff 2
|----------------------------------|------|
|----------------------------------|------|
|----------------------------------|------|
|----------------------------------|------|
|-6-6-6666-6-6-6666-77-55-6-6-6666-|-2----|
|-4-4-4444-4-4-4444-55-33-4-4-4444-|-0----|


riff 3
|-------------------|-------|------|
|-------------------|-------|------|
|-------------------|-------|------|
|-----9-----9-----9-|-5--7--|------|
|-----7-----7-----7-|-3--5--|10--9-|
|-0--0--0--0--0--0--|-------|-8--7-|


riff 4                                           bridge
|-------------------------|---------------------|---------------------|
|-------------------------|---------------------|---------------------|
|-------------------------|---------------------|---------------------|
|-----9-----9-----9-----9-|---------------------|---------------------|
|-----7-----7-----7-----7-|10-------------------|-2----2----2----2----|
|-0--0--0--0--0--0--0--0--|-8-888888-777-555-77-|-0----0----0----0----|
            

comments powered by Disqus
↑ Back to top | Dayglo Abortions Tabs for Scientology. Lyrics for acoustic guitar and electric guitar. Tablatures and chords are parodies/interpretations of the original songs. You may use it for private study, scholarship, research or language learning purposes only