» » »

Lets Get Drunk Tabs (ver.1)

Artists:  A B C D E F G H I J K L M N O P Q R S T U V W X Y Z # 

Lets Get Drunk Tabs (ver.1)

Dayglo Abortions
Rating:
0/5 (0 votes)

Hard to play? Try these video lessons and learn fast.
                
riff 1
|-----------------------------------------------------------------------------|
|-----------------------------------------------------------------------------|
|-----------------------------------------------------------------------------|
|-7-----7-------------7-----7-------------7-----7----7-99-99------------------|
|-5--9--5--9-99999999-5--9--5--9-7-777777-5--9--5--9-5-77-77-77777-5-9-999999-|
|----7-----7-77777777----7-----7-5-555555----7-----7---------55555---7-777777-|


riff 2
|----------------------------------------------|-------------------------------------|
|----------------------------------------------|-------------------------------------|
|----------------------------------------------|-------------------------------------|
|-777777-----------9-777777--------------------|-777777-----------9-777777-----------|
|-555555-77-999999-7-555555-77-7/9--99-7/9--99-|-555555-77-999999-7-555555-77-99999--|
|--------55-777777----------55-5/7--77-5/7--77-|--------55-777777----------55-77777--|


riff 3
|------------------------------------------------------------------|
|------------------------------------------------------------------|
|------------------------------------------------------------------|
|-----------------------7-----------------9---9--------------------|
|-5-5-555-9-9-999-5-5-555-7-9-999-5-5-557-7-9-7-9-777-777-777-7777-|
|-3-3-333-7-7-777-3-3-33--5-7-777-3-3-335---7---7-555-555-555-5555-|


riff 4
|------------------------------------------------------|
|------------------------------------------------------|
|------------------------------------------------------|
|-77777------99999-------------------------------------|
|-55555------77777-9-9-999-79-9-999-79-9--79--9--99999-|
|------------------7-7-777-57-7-777-57-7--57--7--77777-|
            
Hard to play? Try these video lessons and learn fast. | Correct




comments powered by Disqus
↑ Back to top | Tablatures and chords are parodies/interpretations of the original songs. You may use it for private study, scholarship, research or language learning purposes only