» » »

I Am My Own God Chords (ver.1)

Artists:  A B C D E F G H I J K L M N O P Q R S T U V W X Y Z # 

I Am My Own God Chords (ver.1)

Dayglo Abortions
Rating:
0/5 (0 votes)

Hard to play? Try these video lessons and learn fast.
                really really easy song

e-|---------------------------------
B-|---------------------------------
G-|-----------------2-2-2-2-4-4-4-4-
D-|-2-2-2-2-5-5-5-5-2-2-2-2-4-4-4-4-
A-|-2-2-2-2-5-5-5-5-0-0-0-0-2-2-2-2-
E-|-0-0-0-0-3-3-3-3-----------------


e-|----------------------------
B-|----------------------------
G-|-----5-5-4--4-4-4-----------
D-|-2-2-5-5-4--4-4-4-5-5-5-5-4-
A-|-2-2-3-3-2--2-2-2-5-5-5-5-4-
E-|-0-0--------------3-3-3-3-2-

i'M My oWn GoD


I AM MY OWN GOD

i can do what ever i want
cause i am my own god
it doesn't matter if its right or wrong 
cause i am my own god
 
            
Hard to play? Try these video lessons and learn fast. | Correct




comments powered by Disqus
↑ Back to top | Tablatures and chords are parodies/interpretations of the original songs. You may use it for private study, scholarship, research or language learning purposes only