>
 >
Stickerbrush Symphony

Stickerbrush Symphony Guitar Tabs

David Wise - Stickerbrush Symphony chords, tabs, tablatures, lyrics

Guitar lessons | Add/correct | Request | Top 50 tabs Artists:  A B C D E F G H I J K L M N O P Q R S T U V W X Y Z 0-9

Stickerbrush Symphony Guitar Tabs – David Wise

CD, Sheet music, Poster

Do you like Stickerbrush Symphony? Share with your friends now
Bass TabsTabs
Donkey Kong Country 2
Composed by Dave Wise
3/6/08

This song is also called: Bramble Blast 

Guitar 1


     E   E   E.   E.   E   Q       E   E   E.   E.   E   Q     
E||-----------------------------|-----------------------------|
B||-----12--13---12---13--------|-----12--13---12---13--------|
G||-----------------------12----|-----------------------12----|
D||-----------------------------|-----------------------------|
A||-----------------------------|-----------------------------|
E||-----------------------------|-----------------------------|


  E   E   E.   E.   E   Q       E   E   E.   E.   E   E   E   
-----------------------------|---------------------------15--|
-----12--13---12---13--------|-----12--13---12---13----------|
-----------------------12----|-----------------------12------|
-----------------------------|-------------------------------|
-----------------------------|-------------------------------|
-----------------------------|-------------------------------|


  E   E   E.   E.   E   Q       E   E   E.   E.   E   Q     
-----------------------------|-----------------------------|
-----12--13---12---13--------|-----12--13---12---13--------|
-----------------------12----|-----------------------12----|
-----------------------------|-----------------------------|
-----------------------------|-----------------------------|
-----------------------------|-----------------------------|


  E   E   E.   E.   E   Q       E   E   E.   E.   E   E   E   
-----------------------------|---------------------------15--|
-----12--13---12---13--------|-----12--13---12---13----------|
-----------------------12----|-----------------------12------|
-----------------------------|-------------------------------|
-----------------------------|-------------------------------|
-----------------------------|-------------------------------|


  E   E   E.   E.   E   Q       E   E   E.   E.   E   Q     
-----------------------------|-----------------------------|
-----12--13---12---13--------|-----12--13---12---13--------|
-----------------------12----|-----------------------12----|
-----------------------------|-----------------------------|
-----------------------------|-----------------------------|
-----------------------------|-----------------------------|


  E   E   E.   E.   E   Q       E   E   E.   E.   E   E   E   
-----------------------------|---------------------------15--|
-----12--13---12---13--------|-----12--13---12---13----------|
-----------------------12----|-----------------------12------|
-----------------------------|-------------------------------|
-----------------------------|-------------------------------|
-----------------------------|-------------------------------|


  E   E   E.   E.   E   Q       E   E   E.   E.   E   Q     
-----------------------------|-----------------------------|
-----12--13---12---13--------|-----12--13---12---13--------|
-----------------------12----|-----------------------12----|
-----------------------------|-----------------------------|
-----------------------------|-----------------------------|
-----------------------------|-----------------------------|


  E   E   E.   E.   E   Q       E   E   E.   E.   E   E   E   
-----------------------------|---------------------------15--|
-----12--13---12---13--------|-----12--13---12---13----------|
-----------------------12----|-----------------------12------|
-----------------------------|-------------------------------|
-----------------------------|-------------------------------|
-----------------------------|-------------------------------|


  E   E   E.   E.   E   Q       E   E   E.   E.   E   Q     
-----------------------------|-----------------------------|
-----12--13---12---13--------|-----12--13---12---13--------|
-----------------------12----|-----------------------12----|
-----------------------------|-----------------------------|
-----------------------------|-----------------------------|
-----------------------------|-----------------------------|


  E   E   E.   E.   E   Q       E   E   E.   E.   E   E   E   
-----------------------------|---------------------------15--|
-----12--13---12---13--------|-----12--13---12---13----------|
-----------------------12----|-----------------------12------|
-----------------------------|-------------------------------|
-----------------------------|-------------------------------|
-----------------------------|-------------------------------|


  E   E   E.   E.   E   Q       E   E   E.   E.   E   Q     
-----------------------------|-----------------------------|
-----12--13---12---13--------|-----12--13---12---13--------|
-----------------------12----|-----------------------12----|
-----------------------------|-----------------------------|
-----------------------------|-----------------------------|
-----------------------------|-----------------------------|


  E   E   E.   E.   E   Q       E   E   E.   E.   E   E   E   
-----------------------------|---------------------------15--|
-----12--13---12---13--------|-----12--13---12---13----------|
-----------------------12----|-----------------------12------|
-----------------------------|-------------------------------|
-----------------------------|-------------------------------|
-----------------------------|-------------------------------|


  E   E   E.   E.   E   Q       E   E   E.   E.   E   Q     
-----------------------------|-----------------------------|
-----12--13---12---13--------|-----12--13---12---13--------|
-----------------------12----|-----------------------12----|
-----------------------------|-----------------------------|
-----------------------------|-----------------------------|
-----------------------------|-----------------------------|


  E   E   E.   E.   E   Q       E   E   E.   E.   E   E   E   
-----------------------------|---------------------------15--|
-----12--13---12---13--------|-----12--13---12---13----------|
-----------------------12----|-----------------------12------|
-----------------------------|-------------------------------|
-----------------------------|-------------------------------|
-----------------------------|-------------------------------|


  E   E   E.   E.   E   Q       E   E   E.   E.   E   Q     
-----------------------------|-----------------------------|
-----12--13---12---13--------|-----12--13---12---13--------|
-----------------------12----|-----------------------12----|
-----------------------------|-----------------------------|
-----------------------------|-----------------------------|
-----------------------------|-----------------------------|


  E   E   E.   E.   E   Q       E   E   E.   E.   E   E   E   
-----------------------------|---------------------------15--|
-----12--13---12---13--------|-----12--13---12---13----------|
-----------------------12----|-----------------------12------|
-----------------------------|-------------------------------|
-----------------------------|-------------------------------|
-----------------------------|-------------------------------|


  E   E   E.   E.   E   Q       E   E   E.   E.   E   Q     
-----------------------------|-----------------------------|
-----12--13---12---13--------|-----12--13---12---13--------|
-----------------------12----|-----------------------12----|
-----------------------------|-----------------------------|
-----------------------------|-----------------------------|
-----------------------------|-----------------------------|


  E   E   E.   E.   E   Q       E   E   E.   E.   E   E   E   
-----------------------------|---------------------------15--|
-----12--13---12---13--------|-----12--13---12---13----------|
-----------------------12----|-----------------------12------|
-----------------------------|-------------------------------|
-----------------------------|-------------------------------|
-----------------------------|-------------------------------|


  E   E   E.   E.   E   Q       E   E   E.   E.   E   Q     
-----------------------------|-----------------------------|
-----12--13---12---13--------|-----12--13---12---13--------|
-----------------------12----|-----------------------12----|
-----------------------------|-----------------------------|
-----------------------------|-----------------------------|
-----------------------------|-----------------------------|


  E   E   E.   E.   E   Q       E   E   E.   E.   E   E   E   
-----------------------------|---------------------------15--|
-----12--13---12---13--------|-----12--13---12---13----------|
-----------------------12----|-----------------------12------|
-----------------------------|-------------------------------|
-----------------------------|-------------------------------|
-----------------------------|-------------------------------|


  E   E   E.   E.   E   Q       E   E   E.   E.   E   Q     
-----------------------------|-----------------------------|
-----12--13---12---13--------|-----12--13---12---13--------|
-----------------------12----|-----------------------12----|
-----------------------------|-----------------------------|
-----------------------------|-----------------------------|
-----------------------------|-----------------------------|


  E   E   E.   E.   E   Q       E   E   E.   E.   E   E   E   
-----------------------------|---------------------------15--|
-----12--13---12---13--------|-----12--13---12---13----------|
-----------------------12----|-----------------------12------|
-----------------------------|-------------------------------|
-----------------------------|-------------------------------|
-----------------------------|-------------------------------|


  E   E   E.   E.   E   Q       E   E   E.   E.   E   Q     
-----------------------------|-----------------------------|
-----12--13---12---13--------|-----12--13---12---13--------|
-----------------------12----|-----------------------12----|
-----------------------------|-----------------------------|
-----------------------------|-----------------------------|
-----------------------------|-----------------------------|


  E   E   E.   E.   E   Q       E   E   E.   E.   E   E   E   
-----------------------------|---------------------------15--|
-----12--13---12---13--------|-----12--13---12---13----------|
-----------------------12----|-----------------------12------|
-----------------------------|-------------------------------|
-----------------------------|-------------------------------|
-----------------------------|-------------------------------|


  E   E   E.   E.   E   Q       E   E   E.   E.   E   Q     
-----------------------------|-----------------------------|
-----12--13---12---13--------|-----12--13---12---13--------|
-----------------------12----|-----------------------12----|
-----------------------------|-----------------------------|
-----------------------------|-----------------------------|
-----------------------------|-----------------------------|


  E   E   E.   E.   E   Q       E   E   E.   E.   E   E   E           
-----------------------------|---------------------------15--|------||
-----12--13---12---13--------|-----12--13---12---13----------|------||
-----------------------12----|-----------------------12------|-----*||
-----------------------------|-------------------------------|-----*||
-----------------------------|-------------------------------|------||
-----------------------------|-------------------------------|------||




Duration Legend
---------------
W - whole
H - half
Q - quarter
E - 8th
S - 16th
. - note dotted


Tablature Legend
----------------
L - tied note


Donkey Kong Country 2
Composed by Dave Wise
3/6/08

Guitar 2


E||-------|-------|-------|-------|-------|-------|-------|-------|
B||-------|-------|-------|-------|-------|-------|-------|-------|
G||-------|-------|-------|-------|-------|-------|-------|-------|
D||-------|-------|-------|-------|-------|-------|-------|-------|
A||-------|-------|-------|-------|-------|-------|-------|-------|
E||-------|-------|-------|-------|-------|-------|-------|-------|


  H        E  E  E  E     E  E  E  E  E  E  E  E     H        E  E  E  E   
--------------------3--|--L--------3--L--------3--|--L-----------3--5--0--|
--------------0--1-----|-----0--1--------0--1-----|-----------------------|
-----------------------|--------------------------|-----------------------|
-----------------------|--------------------------|-----------------------|
-----------------------|--------------------------|-----------------------|
-----------------------|--------------------------|-----------------------|


  W                           H        E   E   E   E   
--L----------------|-------|----------------------15--|
-------------------|-------|--------------12--13------|
-------------------|-------|--------------------------|
-------------------|-------|--------------------------|
-------------------|-------|--------------------------|
-------------------|-------|--------------------------|


   E   E   E   E   E   E   E   E      Q.      E   E   E   E   E   
---L----------15---L----------15--|---L------20--19--15------17--|
------12--13----------12--13------|----------------------17------|
----------------------------------|------------------------------|
----------------------------------|------------------------------|
----------------------------------|------------------------------|
----------------------------------|------------------------------|


   Q    H.              H.           E   E      H.            E   E   
---L-----------------|----------------------|------------------------|
---------------------|----------------------|------------------------|
---------------------|----------------------|--------------------12--|
---------------------|------------------14--|--12--------------------|
---------------------|----------------------|----------------10------|
---------------------|----------------------|------------------------|


   H         E.   E.   E      Q.      S  S  E.   E.   E   
--------------------------|------------------------------|
--------------------------|------------------------------|
--12--------12---10-------|------------------------------|
----------------------14--|--12------14-12---------------|
--------------------------|----------------15---14---15--|
--------------------------|------------------------------|


   H         E   Q     E      H        Q     E   E      H         E.   E.   E   
--------------------------|-------------------------|--------------------------|
--------------------------|-------------------------|-----------------10---12--|
--14---------L--14--------|---------------------12--|--12--------12------------|
----------------------14--|--12---------------------|--------------------------|
--------------------------|-----------------10------|--------------------------|
--------------------------|-------------------------|--------------------------|


   Q     E   Q     Q    E      H        H           Q.      E  E.   E.  E   
---------------------------|---------------------|-------------------------|
--12----13--12-------------|--10-----------------|-------------------------|
------------------12----9--|---------------------|----------------------9--|
---------------------------|---------------------|---------10--9---10------|
---------------------------|---------------------|-------------------------|
---------------------------|---------------------|-------------------------|


   W                                                                         
--------------------|-----------|-----------|-------|-------|-------|-------|
--10----------------|-----------|-----------|-------|-------|-------|-------|
--------------------|-----------|-----------|-------|-------|-------|-------|
--------------------|-----------|-----------|-------|-------|-------|-------|
--------------------|-----------|-----------|-------|-------|-------|-------|
--------------------|-----------|-----------|-------|-------|-------|-------|


                  H        E  E  E   S S    E  E  E   S S E  E  E   S S  
-------|-------|-------------------------|------------------------------|
-------|-------|-------------------------|------------------------------|
-------|-------|-----------7--9--7-----7-|--L--9--7-----7-L--9--7-----7-|
-------|-------|--------------------10---|-----------10------------10---|
-------|-------|-------------------------|------------------------------|
-------|-------|-------------------------|------------------------------|


  E  E  E   S S E  E  E  E     Q.     S S  Q    E   E   
----------------------------|--------------------------|
----------------------8-----|--------------------------|
--L--9--7-----7-L--9-----9--|--7------9-7--------------|
-----------10---------------|-------------10----9--10--|
----------------------------|--------------------------|
----------------------------|--------------------------|


   H        E   Q    E     H        E   Q     E      H         E.   E.   E   
------------------------|------------------------|--------------------------|
--10--------L--10-------|------------------------|-----------------10---12--|
---------------------9--|--7--------L--------12--|--12--------12------------|
------------------------|------------------------|--------------------------|
------------------------|--------------10--------|--------------------------|
------------------------|------------------------|--------------------------|


   Q     E   Q     E  E   E      H         E.  E.  E     H        E.   E.  E   
-----------------------------|------------------------|-----------------------|
--12----13--12-----------10--|---L--------------------|--8--------------------|
------------------12--9------|-----------------7---9--|--------------------9--|
-----------------------------|------------10----------|-----------9---10------|
-----------------------------|------------------------|-----------------------|
-----------------------------|------------------------|-----------------------|


   H        E.  E.   E     Q     E  Q    Q     E     H         E.  E.  E   
------------------------|-------------------------|-----------------------|
--10--------------------|-------------------------|-----------------------|
------------------------|--9----10--9----7--------|--9-------------7---9--|
------------7---9---10--|---------------------10--|-----------10----------|
------------------------|-------------------------|-----------------------|
------------------------|-------------------------|-----------------------|


  H        E.   E.  E      H        E.  E.   E     Q     E  E  E   E  Q     
-----------------------|------------------------|--------------------------|
--8--------------------|--10--------------------|--------------------------|
--------------------9--|------------------------|--9----10--9-----10--7----|
-----------9---10------|------------7---9---10--|--------------------------|
-----------------------|------------------------|--------------------------|
-----------------------|------------------------|--------------------------|


--------||
--------||
-------*||
-------*||
--------||
--------||




Duration Legend
---------------
W - whole
H - half
Q - quarter
E - 8th
S - 16th
. - note dotted


Tablature Legend
----------------
L - tied note





Comments


Popular David Wise tabs & chords
Stickerbrush Symphony Bass Tabs
Aquatic Ambience Tabs
Donkey Kong - Start Game Tabs
Donkey Kong Country - Gangplank Galleon Tabs
Donkey Kong Country - Tree Tops Town Tabs
Donkey Kong Country 2 - Bonus Stage Tabs
Donkey Kong Country 2 - Cocaphone Krool Tabs
Donkey Kong Country 2 - Lockjaws Saga Tabs
Donkey Kong Country 2 Main Theme Tabs
Donkey Kong Country 2 Main Theme 1 Tabs


Song lyrics



↑ Back to top | Tablatures and chords are parodies/interpretations of the original songs. You may use it for private study, scholarship, research or language learning purposes only
© 2014 AZChords.com Contact us | Privacy policy | DMCA | Add/correct tabs | Request tabs | Top 50 tabs