» » »

Donkey Kong Country - Gangplank Galleon Tabs (ver.1)

Artists:  A B C D E F G H I J K L M N O P Q R S T U V W X Y Z # 

Donkey Kong Country - Gangplank Galleon Tabs (ver.1)

David Wise
Rating:
5/5 (2 votes)

Hard to play? Try these video lessons and learn fast.
                Gangplank Galleon
Donkey Kong Country
Composed by Dave Wise
9/30/06

e------------------------5-----8---6-|
B--6-5-------5-6-5---5-6---6---------|
G------7-5-7-------7-----------------|
D------------------------------------|
A------------------------------------|
E------------------------------------|

e-------------------------------8----------------------------------------|
B--10--10-8-10--10-8-10-8-10-11---11-----------------------------8-10----|
G--------------------------------------10--10-9-10--10-9-10-9-10------10-|
D------------------------------------------------------------------------|
A------------------------------------------------------------------------|
E------------------------------------------------------------------------|

e------------------------------8-----------------------------------8---------|
B-10--10-8-10--10-8-10-8-10-11---11-10-8------------10----------10---10------|
G----------------------------------------10-9-10-12----12-10-12-----------9--|b
D----------------------------------------------------------------------------|
A----------------------------------------------------------------------------|
E----------------------------------------------------------------------------|

e-------------------------------------------------------------------|
B----------------------5-6--------------------------10-11-10-8------|
G--7--7-5-7--7-5-7-5-7-----7-----------------------------------10-9-|
D------------------------------10--10-8-10-8-7-8-10-----------------|
A-------------------------------------------------------------------|
E-------------------------------------------------------------------|

e--------------------------------------------------------------|
B----------------------5-6-----------5-6-----8-6---6-10-8------|
G--7--7-5-7--7-5-7-5-7-----7---7-5-7-----7-------9--------10-9-|
D--------------------------------------------------------------|
A--------------------------------------------------------------|
E--------------------------------------------------------------|

e---------8----------------------------------------8---------8--------8--10-|
B--10---------------10--8-------------------10------------------------------|
G------------10---------------9--7--------------------10--------9-----------|
D---------------------------------------------------------------------------|
A---------------------------------------------------------------------------|
E---------------------------------------------------------------------------|

e---------------8---------8--------8--10-|
B--------10------------------------------|
G------------------10--------9-----------|
D----------------------------------------|
A----------------------------------------|
E----------------------------------------|

e-------------------------------8-|
B--10-10p8p10-10p8p10p8h10p8p10---|
G---------------------------------|
D---------------------------------|
A---------------------------------|
E---------------------------------|

e-------------------------------8-|
B---------------------------------|
G--10-10p9h10-10p9h10p9h10p9h10---|
D---------------------------------|
A---------------------------------|
E---------------------------------|

e-------------------------------|
B--8-8p6h8-8p6h8p6h8p6h8-10-10--|
G-------------------------------|
D-------------------------------|
A-------------------------------|
E-------------------------------| x2

That's about it. There isn't anything else in the
song that isn't covered in this tab.
            
Hard to play? Try these video lessons and learn fast. | Correct




comments powered by Disqus
↑ Back to top | Tablatures and chords are parodies/interpretations of the original songs. You may use it for private study, scholarship, research or language learning purposes only