» » »

David Wise, Donkey Kong Country 2 Main Tabs (ver.2)

Artists:  A B C D E F G H I J K L M N O P Q R S T U V W X Y Z # 

Donkey Kong Country 2 Main Tabs (ver.2)

David Wise Tabs
 Rating:
4/5 (4 votes)
Donkey Kong Country 2 Main lessons Tabs too difficult? Try these video lessons and learn fast
                (Theme)
----------------------------------------------------------------------------
        Donkey Kong Country 2 Squak's Shaft - David Wise
----------------------------------------------------------------------------


Tuning:Standard

     3x
e|-13-----13-13---|-5-5-5-5-5-5-5-5--7-7-7--8--8--8--8--8--8--8--8--|-------|
B|---12-12-----12-|-6-6-6-6-6-6-6-6--8-8-8--10-10-10-10-10-10-10-10-|-15-17-|
G|----------------|-7-7-7-7-7-7-7-7--9-9-9--10-10-10-10-10-10-10-10-|-------|
D|----------------|-------------------------------------------------|-------|
A|----------------|-------------------------------------------------|-------|
E|----------------|-------------------------------------------------|-------|

e|---15--------------------15----------------------15-----17-18-17-15-17-15-|
B|-18--17-13--13-/-15-17-18--17-13-13-/-15-15-17-18--17-13------------------|
G|----------14--------------------------------------------------------------|
D|--------------------------------------------------------------------------|
A|--------------------------------------------------------------------------|
E|--------------------------------------------------------------------------|

                               4x
e|-13--------15---------|------16b-15-15b-13-15-13-12------|------3----------|
B|---15-17-18--17-13-15-|-13-15----------------------13-15-|-3-/-6-5-1-1-/-3-|
G|----------------------|----------------------------------|----------2------|
D|----------------------|----------------------------------|-----------------|
A|----------------------|----------------------------------|-----------------|
E|----------------------|----------------------------------|-----------------|

e|----3-------------3---5-6-5-3---------3--------|-|
B|-5-6-5-1-/-3-3-5-6-5-1-------6-\-5-/-6-5-1-1/3-|-|
G|-----------------------------------------------|-|
D|-----------------------------------------------|-|
A|-----------------------------------------------|-|
E|-----------------------------------------------|-|


| /  slide up
| \  slide down
| h  hammer-on
| p  pull-off
| ~  vibrato
| +  harmonic
| x  Mute note
===============================================================================
            
Submit corrections

comments powered by Disqus
↑ Back to top | David Wise Tabs for Donkey Kong Country 2 Main. Lyrics for acoustic guitar and electric guitar. Tablatures and chords are parodies/interpretations of the original songs. You may use it for private study, scholarship, research or language learning purposes only