» » »

Aquatic Ambience Tabs (ver.1)

Artists:  A B C D E F G H I J K L M N O P Q R S T U V W X Y Z # 

Aquatic Ambience Tabs (ver.1)

David Wise
Rating:
5/5 (1 vote)

Hard to play? Try these video lessons and learn fast.
                -------------------------------------------------------------------------------
                             SONG NAME - Band Name
-------------------------------------------------------------------------------

Tuning:Standard

e|-10-11----10-11----10-11----10-11----10-11----10-11----10-11----10-11-----|
B|------11-------11-------11-------11-------11-------11-------11-------11---|
G|--------12-------12-------12-------12-------12-------12-------12-------12-|
D|--------------------------------------------------------------------------|
A|--------------------------------------------------------------------------|
E|--------------------------------------------------------------------------|

e|--------------------------------------------------------------------------|
B|-13-11---------------13-11------------------------------------------------|
G|--------10-13-12------------10-13-12-----13-12-----13-12-15-12-13-12------|
D|------13--------13-10-----13--------13-10-----10-13-----------------10-13-|
A|--------------------------------------------------------------------------|
E|--------------------------------------------------------------------------|

e|---------------------------------------------------------------------------|
B|---------------------------------------------------------------------------|
G|-13-12-15-12-16-15----------------16-15----------------16-15---------------|
D|------------------12-15-17-15--12------12-15-17-15--12------12-15-17-15-12-|
A|-----------------------------13-------------------13-------------------13--|
E|---------------------------------------------------------------------------|
      play 2 times
e|-------------------------|------18-----18-----18-15-16--15-16--15-16----|
B|-------------------------|-15-17--15-17--15-17--------13-----13-----13--|
G|-------------------------|----------------------------------------------|
D|-------------------------|----------------------------------------------|
A|-10-10-10-10-10-\-8-/-10-|----------------------------------------------|
E|--8--8--8--8--8-\-6-/--8-|----------------------------------------------|

e|-16-15-18-15-16-15-----16-15-18-15-16-15-----16-15-18-15-16-15------------|
B|------------------13-16-----------------13-16-----------------13-16-------|
G|--------------------------------------------------------------------------|
D|--------------------------------------------------------------------------|
A|--------------------------------------------------------------------------|
E|--------------------------------------------------------------------------|

e|-8-/-10-8-10-8-10-11-13-11-10-6-6-/-8-6-/-8-8-/-10-8-10-8-10-11-13-15-18---|
B|---------8---------------------------4-----4--------8----------------------|
G|---------------------------------------------------------------------------|
D|---------------------------------------------------------------------------|
A|---------------------------------------------------------------------------|
E|---------------------------------------------------------------------------|

e|-20--6-/-8-18-/-20--6-/-8-16-15-16-15-16-15--16-15-16-16-/-18-16-15-13-|-|
B|---16-----4-------16-----4-----------------13--------------------------|-|
G|-----------------------------------------------------------------------|-|
D|-----------------------------------------------------------------------|-|
A|-----------------------------------------------------------------------|-|
E|-----------------------------------------------------------------------|-|
    Enjoy!!!!

| /  slide up
| \  slide down
| h  hammer-on
| p  pull-off
| ~  vibrato
| +  harmonic
| x  Mute note
================================================================================
            
Hard to play? Try these video lessons and learn fast. | Correct




comments powered by Disqus
↑ Back to top | Tablatures and chords are parodies/interpretations of the original songs. You may use it for private study, scholarship, research or language learning purposes only