» » »

David Meshow, Midnight Burst Tabs (ver.1)

Artists:  A B C D E F G H I J K L M N O P Q R S T U V W X Y Z # 

Midnight Burst Tabs (ver.1)

David Meshow Tabs
Rating:
0/5 (0 votes)
Hard to play? Try these video lessons and learn fast.
                (Intro)
READ HERE!!!

song is in d tuning not drop d :

: d, g, c, f ..




e|---------------------------------------------------------------------------|
B|---------------------------------------------------------------------------|
G|------5-4-0----------------------------------------------------------------|
D|--5-7-----------2-3-2-0---2-3-2-0-2-0--------------------------------------|
A|3-----------5-5---------7-------------3-2-3-2-0----------------------------|
E|1-----------3-3---------5--------------------------------------------------|

e|---------------------------------------------------------------------------|
B|---------------------------------------------------------------------------|
G|------5-4-0---------------5-7b-5-------------------------------------------|
D|--5-7-----------2-3-2-0----------7-5-2-3-2-0-------------------------------|
A|3-----------5-5---------7--------------------------------------------------|
E|1-----------3-3---------5--------------------------------------------------|

e|---------------------------------------------------------------------------|
B|---------------------------------------------------------------------------|
G|------5-4-0----------------------------------------------------------------|
D|--5-7-----------2-3-2-0---2-3-2-0-2-0--------------------------------------|
A|3-----------5-5---------7-------------3-2-3-2-0----------------------------|
E|1-----------3-3---------5--------------------------------------------------|

e|---------------------------------------------------------------------------|
B|---------------------------------------------------------------------------|
G|------5-4-0-------------1-1-1-1-1------------------------------------------|
D|--5-7-----------2-3-2-0-2-2-2-2-2-3-5-3------------------------------------|
A|3-----------5-5---------2-2-2-2-2-3-5-3------------------------------------|
E|1-----------3-3---------0-0-0-0-0-1-3-1------------------------------------|

X2



************************************

| /   slide up
| \   slide down
| h   hammer-on
| p   pull-off
| ~   vibrato
| +   harmonic
| x   Mute note
| b   Bend
| pb  Pre-bend
| br  Bend release
| pbr Pre-bend release
| brb Bend release bend

************************************
            

comments powered by Disqus
↑ Back to top | David Meshow Tabs for Midnight Burst. Lyrics for acoustic guitar and electric guitar. Tablatures and chords are parodies/interpretations of the original songs. You may use it for private study, scholarship, research or language learning purposes only