>
 >
Lost In Space

Lost In Space Guitar Tabs

David Meshow - Lost In Space chords, tabs, tablatures, lyrics

Guitar lessons | Add/correct | Request | Top 50 tabs Artists:  A B C D E F G H I J K L M N O P Q R S T U V W X Y Z 0-9

Lost In Space Guitar Tabs – David Meshow

CD, Sheet music, Poster

Do you like Lost In Space? Share with your friends now
Tabs

tune guitar 1 and a half step down every string. can be played in standard but 
will be a higher pitch.

e|---------------------------------------------------------------------------|
B|---------------------------------------------------------------------------|
G|---------------------------------------------------------------------------|
D|--------------11-9h11-14-9---------------------11-14p11-16b----------------|
A|11-14-/6h7----0-------------11-9h11-9-7-2-0h2--0---------------------------|
E|0---------------------------0----------------------------------------------|

e|---------------------------------------------------------------------------|
B|---------------------------------------------------------------------------|
G|---------------------------------------------------------------------------|
D|-----------------------------------11----9h11p9-7-6-7-9-7--6h7p6------------|
A|11---11h14p11---11h12p11---9h11p9--0--00-----------------------------------|
E|0-00----------0----------0-------------------------------------------------|

e|---------------------------------------------------------------------------|
B|---------------------------------------------------------------------------|
G|----------------------------------------------------------------16---------|
D|---------------------------------------11-11-11-14-11-16-14-18-----18------|
A|11----11h12p11-19-18h19-21-19-18h19p18--0----------------------------------|
E|0--00----------------------------------------------------------------------|

e|-------------------------------------------------0--0----------------------|
B|-------------------------------------------------0--0----------------------|
G|---13p11h13------------------14p13-14p13-11-9----9--9----------------------|
D|------------14p13-11------11------------------11-11-11---------------------|
A|11-------------------11b--0----------------------0--0--------------------- |
E|0------------------------------------------------0--0----------------------|

e|---------------------------------------------------------------------------|
B|---------------------------------------------------------------------------|
G|---13p11h13----------------------------------------------------------------|
D|------------14p13-11-9--9---11-11p9h11p9-7-6-7-9-7--6h7p6------------------|
A|11-------------------11-11--0----------------------------------------------|
E|0--------------------------------------------------------------------------|

e|---------------------------------------------------------------------------|
B|---------------------------------------------------------------------------|
G|---------------------------------------------------------------------------|
D|-------------------------------11-14-11-14/21-18---------------------------|
A|11-11p9h11p9-7-6-7-9-7--6h7p6--0-------------------------------------------|
E|0--------------------------------------------------------------------------|

e|---------------------------------------------------------------------------|
B|---------------------------------------------------------------------------|
G|---------------------------------------------------------------------------|
D|-----------------------------------11-11-11-14-11-16-14-18-19-18-----------|
A|11---11h14p11---11h12p11---9h11p9--0---------------------------------------|
E|0-00----------0----------0-------------------------------------------------|

e|9-----9--0-----0--0-0-----0-----0-----5------------------------------------|
B|9-----9--8-----0--0---0-----0-----0-----5----------------------------------|
G|9-----9--9-----9--6-----------6-----------6-8b-----------------------------|
D|9-x4--9--11-x4-9--7-----7-----------7------------------------------------- |
A|11----9--0-----0--7--------------------------------------------------------|
E|9-----9-----------5--------------------------------------------------------|


************************************

| /   slide up
| \   slide down
| h   hammer-on
| p   pull-off
| ~   vibrato
| +   harmonic
| x   Mute note
| b   Bend
| pb  Pre-bend
| br  Bend release
| pbr Pre-bend release
| brb Bend release bend

************************************





Comments


Popular David Meshow tabs & chords
Do You Feel It Bass Tabs
Anus Chords
Cest La Bonne Chords
Best Improvisation Ever 2 Intro Tabs
Guitar Rig Intro Tabs
Midnight Burst Intro Tabs
Mystery Intro Tabs
One Man Band Tabs
Unfinished Dream Intro Tabs
Cest La Bonne Ukulele


Song lyrics



↑ Back to top | Tablatures and chords are parodies/interpretations of the original songs. You may use it for private study, scholarship, research or language learning purposes only
© 2014 AZChords.com Contact us | Privacy policy | DMCA | Add/correct tabs | Request tabs | Top 50 tabs