» » »

David Meshow, Do You Feel It Bass tabs (ver.1)

Artists:  A B C D E F G H I J K L M N O P Q R S T U V W X Y Z # 

Do You Feel It Bass tabs (ver.1)

David Meshow Tabs
 Rating:
3.7/5 (6 votes)
Do You Feel It lessons Tabs too difficult? Try these video lessons and learn fast
                -----------------------------------------------------------------------------
-----------------------------------------------------------------------------


A Very Simple Tab, Played slowly.
David playsit with his foot, But just as easy, if not easier, with your hands.

G|--7-----------5---5---8-------6---6-------9---5---5-------9---5---5--------|
D|------6---9---------------9-----------7---------------7---------------7----|
A|---------------------------------------------------------------------------|
E|---------------------------------------------------------------------------|

G|--9---5---5-------9---5---5-------9---5---5-------9---5---5-------9---5---5-|
D|--------------7---------------7---------------7---------------7-------------|
A|----------------------------------------------------------------------------|
E|----------------------------------------------------------------------------|

G|------9---5---9---5-------------------------------------------------------|
D|--7-----------------------------------------------------------------------|
A|--------------------------------------------------------------------------|
E|--------------------------------------------------------------------------|
            
Submit corrections

comments powered by Disqus
↑ Back to top | David Meshow Bass for Do You Feel It. Lyrics for acoustic guitar and electric guitar. Tablatures and chords are parodies/interpretations of the original songs. You may use it for private study, scholarship, research or language learning purposes only