» » »

David Meshow, Best Improvisation Ever Tabs (ver.2)

Artists:  A B C D E F G H I J K L M N O P Q R S T U V W X Y Z # 

Best Improvisation Ever Tabs (ver.2)

David Meshow Tabs
 Rating:
4/5 (4 votes)
Best Improvisation Ever lessons Tabs too difficult? Try these video lessons and learn fast
                "(3)

Tuning: Half-Step Down: eb, Bb, Gb, Db, Ab, Eb


Please copy and paste into Word.  Set your font to:
“LucidaGrande” size: 14  Guaranteed 100% ;)

Key:
* = Palm Mute
~ = Vibrato
/ = Slide down
\ = Slide up
b = bend
r = release

Enjoy.

Intro/Pre-Chorus: (Repeat X2)

eb|------------------------------------------|
Bb|------------------------------------------|
Gb|------------------------------------------|
Db|------------------------------------------|
Ab|------1----3----1----0----1----0-0-1~-----|
Eb|-3-3----3----3----3----3----3-------------|
       *  *        *        *       *        *        *
eb|------------------------------------------------|
Bb|------------------------------------------------|
Gb|------------------------------------------------|
Db|-------8-----10----8----7----8----7777-8\-------|
Ab|-6--6----6------6----6----6----6----------------|
Eb|------------------------------------------------|
       *    *        *            *        *        *       *   * * * *

eb|-----------------------------------------------|
Bb|-----------------------------------------------|
Gb|-----------3-----------------------------------|
Db|------7---------7----5----7----5----4~---------|
Ab|-3-3----3----3----3----3----3----3-------------|
Eb|-----------------------------------------------|
       *   *       *        *        *        *        *        *
1.  ______________________________________________________

eb|------------------------------------------------|
Bb|------------------------------------------------|
Gb|------------------------------------------------|
Db|-------4----5----7----4----5----7b-8-r7---------|
Ab|-5--5----5----5----5----5----5------------------|
Eb|------------------------------------------------|
       *     *       *        *        *        *       *

Play with crescendo:

2.  _________________________________________________________

eb|---------------------------------------------|
Bb|---------------------------------------------|
Gb|----------------------------7-7---7777-------|
Db|-----------5-5-5-5-7-7-7-7-7-7---7777--------|
Ab|---5-5-5-5-5-5-5-5-5-5-5-5-5-5---5555--------|
Eb|----------------------------------5555-------|
                                                                   * * * *

Chorus:
eb|----------------------------------------|
Bb|----------------------------------------|
Gb|------------------------7---------------|    (x4)
Db|--5-----------3---------7---------------|
Ab|--5--(x16)-----3--(x8)---5--(x8)--------|
Eb|--3-----------1---------5---------------|

Violin Part: (Tremolo Picking)
eb|------------------------------------|-------|
Bb|------------------------------------|-------|
Gb|-5-0-5-0-7-0-8-0-7-0-5-0-4-0-4-0--|--5------|  (x4)
Db|------------------------------------|-------|
Ab|------------------------------------|-------|
Eb|------------------------------------|-------|

Pre-Verse: (Violin makes a pick slide up after power chord, then back down)
eb|--------------------------------------|
Bb|--------------------------------------|
Gb|--------------------------------------|
Db|--5~------5~--------------------------|
Ab|--5~------5~--------------------------|
Eb|--3~------3~--------------------------|

Verse:
eb|-------------------------------------------------|
Bb|-------------------------------------------------|
Gb|------------8--------5-------7-7-7-7--7---7~-----| (x2)
Db|--5---------8--------5-------7-7-7-7-------------|
Ab|--5--(x8)----6--(x8)--3--(x8)--5-5-5-5----5------|
Eb|--3---------6--------3-------5-5-5-5----5--------|
        *                  *               *             *  *  *  *         *

Pre-Chorus:

eb |----------------------------------------------|
Bb |----------------------------------------------|
Gb |----------------------------------------------|
Db |----------------------------------------------|
Ab |------1----3----1----0----1----0-0-1~---------|
Eb |-3--3---3----3----3----3----3-----------------|
       *     *      *        *       *        *        *


eb |-------------------------------------------------|
Bb |-------------------------------------------------|
Gb |-------------------------------------------------|
Db|-------8----10-----8-----7-----8-----7----8~------|
Ab|-6--6----6------6-----6-----6-----6-----6---------|
Eb|--------------------------------------------------|
       *     *       *            *         *          *          *         *
eb|--------------------------------------------------|
Bb|--------------------------------------------------|
Gb|-------------3------------------------------------|
Db|-------7-----------7----5-----7-----5-----4~------|
Ab|-3--3-----3-----3----3-----3-----3-----3----------|
Eb|--------------------------------------------------|
       *    *          *          *        *         *          *          *

1.  ____________________________________

eb |--------------------------------------------------|
Bb |--------------------------------------------------|
Gb |--------------------------------------------------|
Db|-------4----5-----7-----4-----5-----7-----7b-8~----|
Ab|-5--5----5-----5-----5-----5-----5-----5-----------|
Eb|---------------------------------------------------|
       *    *        *          *          *         *          *         *

Play with crescendo:

2.  ______________________________________

eb|-------------------------------------------------|
Bb|-------------------------------------------------|
Gb|-----------------------------------7-7---7777----|
Db|--------4-----5-----7-----5-5-7-7-7-7---7777-----|
Ab|-5---5-----5-----5-----5--5-5-5-5-5-5---5555-----|
Eb|-----------------------------------------5555----|
       *      *          *         *          *                              * * * *

Chorus:
eb|----------------------------------------|
Bb|----------------------------------------|
Gb|------------------------7---------------|    (x4)
Db|--5-----------3---------7---------------|
Ab|--5--(x16)-----3--(x8)---5--(x8)--------|
Eb|--3-----------1---------5---------------|


Violin Part: (Tremolo Picking)
eb|-------------------------------------------|
Bb|-------------------------------------------|
Gb|-5-0-5-0-7-0-8-0-7-0-5-0-4-0-4-0-----------|  (x4)
Db|-------------------------------------------|
Ab|-------------------------------------------|
Eb|-------------------------------------------|


Pre-Verse: (Violin makes a pick slide up after power chord, then back down)
eb|-------------------------------------------------|
Bb|-------------------------------------------------|
Gb|-------------------------------------------------|
Db|--5----------------5-----------------------------|
Ab|--5--(x12)----------5--(x16)---------------------|
Eb|--3----------3b-5--3-----------------------------|


Solo: During Solo, Verse (x1) and Pre-Chorus (x2) are played.
eb|------------------------------------------------|
Bb|------------------------------------------------|
Gb|-------8~--7-8-10-8-7b8-8\----------------------|
Db|-5~--------------------------4~--/15\-----------|
Ab|------------------------------------------------|
Eb|------------------------------------------------|


eb|---------------------------------------------------|
Bb|-----------------------------8-6h8h10-8h10h11~-----|
Gb|----7------7-8--7-8-7-8-10~------------------------|
Db|-5~---5-5------------------------------------------|
Ab|---------------------------------------------------|
Eb|---------------------------------------------------|
                  * *              *  *  *  *

eb|---------------------------------------------------|
Bb|-10~-7--8--10~---11p10p8-(x9)--13--15--------------|
Gb|---------------------------------------------------|
Db|---------------------------------------------------|
Ab|---------------------------------------------------|
Eb|---------------------------------------------------|

eb|-------------------------------13------------------|
Bb|-16p15h16--13-15-11-13-10-11----10-11-13-15-10-----|
Gb|---------------------------------------------------|
Db|---------------------------------------------------|
Ab|---------------------------------------------------|
Eb|---------------------------------------------------|

Tremolo Picking:
eb|---------------------------------------------------|
Bb|---------------------------------------------------|
Gb|-14h15p14-12h14p12-10h12p10-8h10p8-7h8h10p7--------|
Db|---------------------------------------------------|
Ab|---------------------------------------------------|
Eb|---------------------------------------------------|

eb|---------------------------------------------------|
Bb|---------------------------------------------------|
Gb|-5h7p5--3h5p3-2h3p2-2b3r2-3-5-6h7h8-10-11~---------|
Db|---------------------------------------------------|
Ab|---------------------------------------------------|
Eb|---------------------------------------------------|

eb|-------------------------------------------------|
Bb|-------------------------------------------------|
Gb|--12-14p12h15p12-(x8)-17^b19-(x8)-17fb-----------|
Db|-------------------------------------------------|
Ab|-------------------------------------------------|
Eb|-------------------------------------------------|

eb|---------------------------------------------------|
Bb|---------------------------------------------------|
Gb|-19b-19-17-19-15-17\14~15\12~13\11-7-5-7-----------|
Db|---------------------------------------------------|
Ab|---------------------------------------------------|
Eb|---------------------------------------------------|
End of solo.

Bridge:
eb|--------------------------------------------------|
Bb|--------------------------------------------------|
Gb|--------------8----------5----------7-------------|  (x2)
Db|--5----------8-----------5----------7-------------|
Ab|--5--(x16)----6--(x16)----3--(x16)----5--(x16)----|
Eb|--3-----------6----------3-----------5------------|

eb|--------------------------------------------------|
Bb|--------------------------------------------------|
Gb|------------8----------5---------7----------------|  (x2)
Db|--5---------8----------5---------7----------------|
Ab|--5--(x8)----6--(x8)----3--(x8)----5--(x8)--------|
Eb|--3----------6---------3---------5----------------|

Chorus:
eb|----------------------------------------|
Bb|----------------------------------------|
Gb|------------------------7---------------|    (x4)
Db|--5-----------3---------7---------------|
Ab|--5--(x16)-----3--(x8)---5--(x8)--------|
Eb|--3-----------1---------5---------------|


Violin Part: (Tremolo Picking)
eb|-------------------------------------------|
Bb|-------------------------------------------|
Gb|-5-0-5-0-7-0-8-0-7-0-5-0-4-0-4-0-----------|  (x4)
Db|-------------------------------------------|
Ab|-------------------------------------------|
Eb|-------------------------------------------|

Ending: Same as Pre-Verse but lead guitar bends the Gb.
eb|-----------------------------------------|
Bb|-----------------------------------------|
Gb|-12-b-15--(x4)--r-12---------------------|
Db|--------------------------5~\------------|
Ab|--------------------------5~\------------|
Eb|--------------------------3~\------------|

All done.  Please rate! =D
"            
Submit corrections

comments powered by Disqus
↑ Back to top | David Meshow Tabs for Best Improvisation Ever. Lyrics for acoustic guitar and electric guitar. Tablatures and chords are parodies/interpretations of the original songs. You may use it for private study, scholarship, research or language learning purposes only