» » »

David Guetta, Without You Tabs (ver.1)

Artists:  A B C D E F G H I J K L M N O P Q R S T U V W X Y Z # 

Without You Tabs (ver.1)

David Guetta Tabs
Rating:
3/5 (2 votes)
Without You lessons Tabs too difficult? Try these video lessons and learn fast
                David Guetta ft Usher: Without You
(Acoustic cover) by Kyle Sanchez.

Standard tuning and capo on the 7th fret

All you really need is 4 chords which are: G C E (I don't remember what this is but it
looks like a G)e--3--
                         B--3--
                         G--0--
                         D--2--
                         A--3--
                         E-----

It goes in order like this
1-G

2-C

3-E

4-G-like chord

Everything is played in 4 sets and 4 times, also if you palm mute it, it sounds better
(that's just my opinion)

It should be like this: (tempo is 1234.1234.1234.1234)
  G              C          E      G-like Chord
e--3-3-3-3----0-0-0-0---------------3-3-3-3-----|
B--3-3-3-3----1-1-1-1---------------3-3-3-3-----|
G--0-0-0-0-x4-0-0-0-0-x4---------x4-0-0-0-0-----|x4
D--0-0-0-0----2-2-2-2----2-2-2-2----2-2-2-2-----|
A--2-2-2-2----3-3-3-3----2-2-2-2----3-3-3-3-----|
E--3-3-3-3--------------------------------------|

You play this up until....

I can’t win, I can’t reign
I will never win this game
without you, without you

I am lost, I am vain,
I will never be the same
without you, without you

I won’t run, I won’t fly
I will never make it by
without you, without you

I can’t rest, I can’t fight
All I need is you and I
without you, without...you.<---- this point. This is where I usually play start playing:

e-3----------------|
B---3-1-0---0h1h3--|
G------------------|
D------------------|
A------------------|
E------------------|

Oh!Oh!Oh!

Without!

You! You! You!
Without
You! You! You!<--- up until this point I start playing this:

e-3p0-------------|
B-----3p0-1p0-3p0-|
G-----------------|
D-----------------|
A-----------------|
E-----------------|

and after the..
You! You! You!
Without
You! You! You!
Without...you.

As soon as you get to "can't Erase" you start with the same chords as the intro:

  G              C          E      G-like Chord
e--3-3-3-3----0-0-0-0---------------3-3-3-3-----|
B--3-3-3-3----1-1-1-1---------------3-3-3-3-----|
G--0-0-0-0-x4-0-0-0-0-x4---------x4-0-0-0-0-----|x4
D--0-0-0-0----2-2-2-2----2-2-2-2----2-2-2-2-----|
A--2-2-2-2----3-3-3-3----2-2-2-2----3-3-3-3-----|
E--3-3-3-3--------------------------------------|


Can’t erase, so I’ll take blame
But I can’t accept that we were estrange
without you, without you

I can’t quit now, this can’t be right.
I can’t take one more sleep this night
without you, without you

I won't soar, I won't climb
If you're not here, I'm paralyzed
Without you, without you

I can't look, I'm so blind
I lost my heart, I lost my mind
Without you, without...you..

after that it does this again:

e-3----------------|
B---3-1-0---0h1h3--|
G------------------|
D------------------|
A------------------|
E------------------|

Oh!Oh!Oh!

Without!

You! You! You!
Without!
You! You! You!<--- up until this point I start playing this:

e-3p0-------------|
B-----3p0-1p0-3p0-|
G-----------------|
D-----------------|
A-----------------|
E-----------------|

and after the..
You! You! You!
Without
You! You! You!
Without...you..<--- after this play the G chord 14 times at the same tempo as always and 
palm muting.

and as soon as it gets to "I am lost"

you play this:

e--3---3----3-3---3---3--3---3----3-3---3---3-|
B---3---3--3---3---3-3----1---1--1---1---1-1--|
G----0---0------0---0------0---0------0---0---|
D---------------------------------------------|
A---------------------------------------------|
E---------------------------------------------|

e--3---3----3-3---3---3--3---3----3-3---3---3-|
B---3---3--3---3---3-3----1---1--1---1---1-1--|
G----0---0------0---0------0---0------0---0---|
D---------------------------------------------|
A---------------------------------------------|
E---------------------------------------------|

at the last "Without...you" play the G chord

Without...you..
e--3--
B--3--
G--0--
D--0--
A--2--
E--3--

Let it ring.

Here are the full lyrics

I can't win, I can't reign
I will never win this game
Without you, without you
I am lost, I am vain,
I will never be the same
Without you, without you

I won't run, I won't fly
I will never make it by
Without you, without you
I can't rest, I can't fight
All I need is you and I,
Without you, without you

Oh oh oh!
You! You! You!
Without...
You! You! You!
Without...you

Can't erase, so I'll take blame
But I can't accept that we're estranged
Without you, without you
I can't quit now, this can't be right
I can't take one more sleepless night
Without you, without you

I won't soar, I won't climb
If you're not here, I'm paralyzed
Without you, without you
I can't look, I'm so blind
I lost my heart, I lost my mind
Without you, without you

Oh oh oh!
You! You! You!
Without...
You! You! You!
Without...you

I am lost, I am vain,
I will never be the same
Without you, without you
Without...you

Thanks for Looking
-Kyle M. Sanchez
            
Submit corrections

comments powered by Disqus
↑ Back to top | David Guetta Tabs for Without You. Lyrics for acoustic guitar and electric guitar. Tablatures and chords are parodies/interpretations of the original songs. You may use it for private study, scholarship, research or language learning purposes only