» » »

Find Me Tabs (ver.1)

Artists:  A B C D E F G H I J K L M N O P Q R S T U V W X Y Z # 

Find Me Tabs (ver.1)

David Gates
Rating:
4/5 (9 votes)

Tabs too difficult? Try these video lessons and learn fast.
                ____________________________________________________________________________
****************************************************************************
Transcriped by: Reynaldo R. Ramos
Tuning: Standard Tuning, Capo on 2nd Fret all chords are relative to capo.
____________________________________________________________________________
****************************************************************************

Para Sa Pinakamamahal kong kaibigan ito, si Ma. Lourdes Lazaro,
sya ang inspirasyon ko sa paggawa nito, sya nga iniisip ko 
habang pinag-aaralan ko ito, medyo nahirapan ako dito dahil hindi
ko nga inaakala na may CAPO sya, pero walang imposible sakin basta't
para sa kanya. Napakaganda talaga ng kanta na ito at sa kanya ko
lang ito nalaman, sana intindihin natin yung lyrics at meaning ng song
maganda talaga at alam kong nagustuhan ni malou ito kasi sa sobrang 
pagmamahal nya sa BF nya nakakainggit nga yun eh..thnkz malou  


Intro: D--A-G-Em-D/A-G-

|-------0-3h2-0--------0-------------------------------7--|
|-----3---------3--2-3---0---0---0-2-3-3-2---0-------3----|
|---2--------------2-----4---0---0-0-0-0-2-2-------2------|
|-0----------------2-----5---0---0-0-0-0-0-------0--------|
|------------------0-------------------0------------------|
|------------------------3---3---0-------------3-------3--|


Stanza: D-A-G--Em--G-Asus-A
        D-A-G--Em--G-Asus-A 

|-----2------0---------------------------0--------------------|
|-----3------2----------0----------------2-----------3---2--2-|
|---2-2------2------0-----0------------0-------0-----0---0--0-|
|-0--------2------0---0-----0--------0-------0-----2-2---2--2-|
|--------0-------------------------2-------------0-----0------|
|---------------3-------------3--0---------3------------------|

|-----2-2------0-0----------7----------------0--------------------|
|-----3-3------3-3--------0------------------2-----------3---2----|
|---2-2-2------2-2------2-----2------------0-------0-----0---0----|
|-0----------0--------0---------0--------0-------0-----2-2---2----|
|----------0---------------------------2-------------0-----0------|
|-------------------3-------------3--0---------3------------------|

Refrain: A/C#--Bm--Em--Asus-A

|--------------5--------------------------------------------------|
|------------2----------------3--------------------------3---2--2-|
|-----2---2------2------4---4---4------------------------0---0--0-|
|---2---2-------------4---4-------4-----0---0---0------2-2-2-2--2-|
|-4-----------------2-----------------2---2---2---2--0------------|
|-----------------------------------0-----------------------------|

Chorus: D--Bm--Em--Asus-A
        D--Bm--Em--Asus-A
        A/C#--Bm--Em--Bb--D--Asus-A  

|-2---2-2--2--------2-----2---------0-----0--------------------|
|-3---3-3--3--------3-----3---------3-----3---------3---2------|
|-2---2-2--2--------4-----4---------0-----0---------0---0------|
|-0-0---0-----0---4-----4-4-4---------------------2-2-2-2-2----|
|---------------2-----2-------2---2------2--0---0-----------0--|
|-------------------------------0------0------0----------------|

|-2---2-2--2--------2-----2---------0-----0--------------------|
|-3---3-3--3--------3-----3---------3-----3---------3---2------|
|-2---2-2--2--------4-----4---------0-----0---------0---0------|
|-0-0---0-----0---4-----4-4-4---------------------2-2-2-2-2----|
|---------------2-----2-------2---2------2--0---0-----------0--|
|-------------------------------0------0------0----------------|

|--------------5---------------------------------------------3-------|
|------------2----------------3--------------------------3---3-------|
|-----2---2------2------4---4---4------------------------3-----3-----|
|---2---2-------------4---4-------4-----0---0---0------0---------0---|
|-4-----------------2-----------------2---2---2---2--1-----1-------1-|
|-----------------------------------0--------------------------------|

|-----2---2---2-------------------------------------|
|-----3---3---3---------3---2-----------------------|
|-----2---2---2---------0---0-----------------------|
|---0---0-------0-----2-2---2-----------------------|
|-0-----------------0-----0-------------------------|
|---------------------------------------------------|


Interlude: D--Asus-A

|-------0-3H2-0-------0---0----------------|
|-----3---------2-----3---2---2------------|
|---2-----------------2---2---2------------|
|-0-----------------2---------2------------|
|-----------------0-----0------------------|
|------------------------------------------|

Stanza 2: (Do Stanza 1 Pattern)
Chorus 2: (Do Chorus 1 Pattern)
Repeat Refrain

Outro: D--A-G-Em-D/A-

|-------0-3h2-0--------0---------------------------------0---0h2-|
|-----3---------3--2-3---0---0---0-2-3-3-----2-------3---3---3h3-|
|---2--------------2-----4---0---0-0-0-0-----0-----2-------------|
|-0----------------2-----5---0---0-0-0-0-----0---0---------------|
|------------------0-------------------0---0---0-----------------|
|------------------------3---3---0-------------------------------|

Intro:

I.
The skies are not as blue, when you're not with me
The stars, they never seem to shine as bright
And the hours crack like days across the ages
And a year or two pass by with every night.

Refrain 1:
It makes me know if i should ever leave this world before you do
When you follow you must promise, cross your heart and promise to

Chorus 1:
Find me...look hard, and dont stop, I'll be waiting 'till then
Dont sleep, and dont eat 'till I'm back, back in your arms again
I dont wanna have to spend all my forever without you.
Just knowing that your out there somewhere too. 
So darlin...please I'm begging you on bended knee...
Find me...

Interlude:
Stanza 2:
I've tried to tell this world how much i love you.
But they dont understand how deep it goes.
And i can't even find the words to tell you
So I'm the only one who really knows.

Refrain 2:
And though we have our times together, I am always wanting more
So if we get separated wont you do just like before and

Chorus 2:
Find me...look hard and dont stop, I'll be waiting 'till then
Dont sleep, and dont eat 'till I'm back, back in your arms again
Through a hundred million faces you will see me shinning through.
'Cause I'll glow when you come close , I always do.
So darlin' please im begging you on bended knee..

Refrain 3:
We can share our love through all eternity
'Cause with you is all i ever wanna be......

Find me....
Outro:


HOPE YOU ENJOY!!
paki rate na lang po.THNKZ

                                -END-
____________________________________________________________________________
****************************************************************************
            
Tabs too difficult? Try these video lessons and learn fast.




comments powered by Disqus
↑ Back to top | Tablatures and chords are parodies/interpretations of the original songs. You may use it for private study, scholarship, research or language learning purposes only