» » »

David Dondero, Stars Are My Chandeleir Tabs (ver.1)

Artists:  A B C D E F G H I J K L M N O P Q R S T U V W X Y Z # 

Stars Are My Chandeleir Tabs (ver.1)

David Dondero Tabs
 Rating:
4/5 (4 votes)
Stars Are My Chandeleir lessons Tabs too difficult? Try these video lessons and learn fast
1
                this tab is sloppy as heck and I play it differently than on the album but hey... it's 
than nothing, right?

e|---------------|
B|---------------|
G|0000-----------|
D|----32-022220--|
A|------3------3-|
E|---------------|

e|---------------|
B|---------------|
G|0000-----------|
D|----32-022220--|
A|------3------3-|
E|---------------|

e|-----------------|
B------------------|
G|-----------------|
D|222232--2222320--|
A|---------------3-|
E|-----------------|

e|------------------------|
B|------------------------|
G|--020-------------------|
D|02---2-3202222-----320--|
A|--------------0303----3-|
E|------------------------|

Verse
just play C... no seriously, that's it.

Chorus
F    G        C
just like the stars are my chandelier
F    G          C
just like these landscapes are my living room
F    G        C
just like the highways are veins
F  G     C
i am the blood, i am the rain

End
    G                     G
and you, you're heaven to hold
                G
we'll never get old
                 F
you're heaven to hold
                        Rock
honey, you're heaven to hold

(yes, Rock is a chord... look it up)
            
Submit corrections

comments powered by Disqus
↑ Back to top | David Dondero Tabs for Stars Are My Chandeleir. Lyrics for acoustic guitar and electric guitar. 1 Tablatures and chords are parodies/interpretations of the original songs. You may use it for private study, scholarship, research or language learning purposes only