» » »

Come Thou Fount Chords (ver.2)

Artists:  A B C D E F G H I J K L M N O P Q R S T U V W X Y Z # 

Come Thou Fount Chords (ver.2)

David Crowder Band
Rating:
3/5 (3 votes)

Hard to play? Try these video lessons and learn fast.
                Tuning:EAEEBE
(in other words, D string tuned up, G string tuned down)
 
here are the chords:                
     E(1)     E (2 fr.)       A      B
e|-0------0-----0----0-----------|
B|-0------0-----0----0-----------|
E|-0------0-----0----0-----------|
E|-0------0-----0----2-----------|
A|-2------7-----0----2-----------|
E|-0------0-----X----X-----------|
...
and here is the tab for the 3rd line (there is no timing, just match it with the tone of the lyrics):
e|---12---11----9----7----12---11--9---7--12---------------------------------|
B|---0----0-----0----0----0----0---0---0--0----------------------------------|
E|---0----0-----0----0----0----0---0---0--0----------------------------------|
E|---0----0-----0----0----0----0---0---0--0----------------------------------|
A|---X-----------------------------------------------------------------------|
E|---X-----------------------------------------------------------------------|


the whole song goes like this:
E(1)   E (2 fr.)   A   E (2 fr.)
E(1)   E (2 fr.)   A   E (2 fr.)
*third line tab here*
E(1)   B    A   E (2 fr.)

the last line is also the break...
            
Hard to play? Try these video lessons and learn fast. | Correct




comments powered by Disqus
↑ Back to top | Tablatures and chords are parodies/interpretations of the original songs. You may use it for private study, scholarship, research or language learning purposes only