>
 >
That Girl

That Girl Guitar Tabs

David Choi - That Girl chords, tabs, tablatures, lyrics

Guitar lessons | Add/correct | Request | Top 50 tabs Artists:  A B C D E F G H I J K L M N O P Q R S T U V W X Y Z 0-9

That Girl Guitar Tabs – David Choi

CD, Sheet music, Poster

Do you like That Girl? Share with your friends now
ChordsChords v2Chords v3TabsUkulele
m= mute
h= hammer... you know the drill.

Intro:
d |--0-------0-------0------------------------------------|
B |--0-h-1---0-------0------------------------------------|
G |--0-------0---2---0---2--------------------------------|
D |--2-------0-------0-------2----------------------------|
A |--0-------m-------m-------2----------------------------|
E |--m-------3---2---3---2--------------------------------|


Verse:

Oh tonight I'm feeling fine...
d |--0-------0-------0------------------------------------|
B |--0-h-1---0-------0------------------------------------|
G |--0-------0---2---0---2--------------------------------|
D |--2-------0-------0-------2----------------------------|
A |--0-------m-------m-------2----------------------------|
E |--m-------3---2---3---2--------------------------------|

I'm just having conversations with the voice in my head...

d |--0-------0-------0-------------------------------------|
B |--0-h-1---0-------0-------------------------------------|
G |--0-------0---2---0---2--------------------------------|
D |--2-------0-------0-------2----------------------------|
A |--0-------m-------m-------2----------------------------|
E |--m-------3---2---3---2--------------------------------|


Pre Chorus:

And it would be wrong for me to say...

(play once and hold until the next chord)
d |-----------------|
B |---1-------------|
G |-----------------|
D |---2-------------|
A |-----------------|
E |-----------------|

I don't need that girl by my side...
d |-0-----------------|
B |-0-----------------|
G |-0--2--------------|
D |-0-----2-----------|
A |-m-----2-----------|
E |-3--2--------------|

I don't need that girl in my life...
d |-----------------|
B |---1-------------|
G |-----------------|
D |---2-------------|
A |-----------------|
E |-----------------|

And I don't want to tell her... 
d |-----------------|
B |---1-------------|
G |-----------------|
D |---2-------------|
A |------m----------|
E |------3----------|


That I love her more than life, more than life...
d |-----------------------|
B |---1-------------------|
G |---2-------2-----------|
D |--------------0-h-2----|
A |--------m-----2---2----|
E |---2----3--2-----------|


Chorus:

I don't want to say she's my kind...
d |-0-----------------|
B |-0-----------------|
G |-0--2--------------|
D |-0-----2-----------|
A |-m-----2-----------|
E |-3--2--------------|

And I don't want to say that she's mine...
d |-----------------|
B |---1-------------|
G |-----------------|
D |---2-------------|
A |-----------------|
E |-----------------|


I don't want to tell her that I...
d |-----------------|
B |---1-------------|
G |-----------------|
D |---2-------------|
A |------m----------|
E |------3----------|


Love her more than life, more than life....
d |------------------------|
B |---1--------------------|
G |---2----4---------------|
D |------------2-----------|
A |--------m---2-----------|
E |---2----3---------------|


Verse:

Honestly this won't do, how is she doing...
d |--0-------0-------0------------------------------------|
B |--0-h-1---0-------0------------------------------------|
G |--0-------0---2---0---2--------------------------------|
D |--2-------0-------0-------2----------------------------|
A |--0-------m-------m-------2----------------------------|
E |--m-------3---2---3---2--------------------------------|

I'll just take this as a new begining, but I dont feel that way...
d |--0-------0-------0------------------------------------|
B |--0-h-1---0-------0------------------------------------|
G |--0-------0---2---0------------------------------------|
D |--2-------0-------0------------------------------------|
A |--0-------m-------m------------------------------------|
E |--m-------3---2---3------------------------------------|

Who will take all this pain away?
d |-------------------------------|
B |-------------------------------|
G |--2----------------------------|
D |--2----------------------------|
A |-------------------------------|
E |-------------------------------|

I know its wrong for me to say...
d |-----------------|
B |---1-------------|
G |-----------------|
D |---2-------------|
A |-----------------|
E |-----------------|

Repeat Pre-chorus and Chorus...





Comments


Popular David Choi tabs & chords
By My Side 3 Chords
Heavens Ease Chords
Hold On Chords
Remember Chords
Rollercoaster Chords
That Girl Chords
Wont Even Start 2 Chords
Wont Even Start 5 Chords
Enjoy The View Tabs
Uneasy Ukulele


Song lyrics



↑ Back to top | Tablatures and chords are parodies/interpretations of the original songs. You may use it for private study, scholarship, research or language learning purposes only
© 2014 AZChords.com Contact us | Privacy policy | DMCA | Add/correct tabs | Request tabs | Top 50 tabs