» » »

Willie, Waylon And Me Bass tabs (ver.1)

Artists:  A B C D E F G H I J K L M N O P Q R S T U V W X Y Z # 

Willie, Waylon And Me Bass tabs (ver.1)

David Allan Coe
Rating:
0/5 (0 votes)

Hard to play? Try these video lessons and learn fast.
                -------------------------------------------------------------------------------
	           WILLIE WAYLON AND ME - David Allan Coe
-------------------------------------------------------------------------------


Tuning: standard


G|-----------------------------------------------------------|
D|-------------------------------------------------3---------|
A|---------1---------------3---------------1---------------3-|
E|-3---------------1---------------3-------------------------|

G|---------------------------------------------------------------|
D|---------------------------------------------------------------|
A|-5-------5-------3-------3-------5-------5-------3-------3-----|
E|-----5-------5-------3-------3-------5-------5-------3-------3-|

G|-------------------------------------------------------------|
D|-----------------------------------------------0-2-3-------3-|
A|-3-1-------1-1-0-------3-------0-2-3-------3-3---------3-----|
E|-------1---------3-1-------1-----------3---------------------|

G|---------------------------------------------------------------|
D|---------5---------------5-------------------------------------|
A|-----5-------5-------5-------5-------5-------5-------5-------5-|
E|-3---------------3---------------3-------3-------3-------3-----|

G|---------------------------------------------------------------|
D|-----------------------------2-4-5-----------------------------|
A|-----5-------2-3-5-------5-5---------5-------0-2-3-------3-----|
E|-3-------3-3---------5-------------------3-3---------3-------3-|

G|---------------------------------------------------------------|
D|-------------2-4-5-------5-------------------2-4-5-------5-----|
A|-5-------5-5---------5-------5-4-3-------3-3---------5---------|
E|-----5-------------------------------3-----------------------3-|

G|-------------------------------------------------------------|
D|-----------------2-4-5-------5---------------------2-4-5-----|
A|-0-2-3-------3-3---------5---------0-2-3-------3-3---------5-|
E|---------3-----------------------3---------3-----------------|

G|-----------------------------------|
D|-5---4-2-------------2-4-5---------|
A|---------5-------5-----------------|
E|-------------5-------------------3-|

That's pretty much the whole song, just play the above a second time. There's some extra 
in there the second time around, but it's pretty easy, you'll figure it out. Peace.
            
Hard to play? Try these video lessons and learn fast. | Correct




comments powered by Disqus
↑ Back to top | Tablatures and chords are parodies/interpretations of the original songs. You may use it for private study, scholarship, research or language learning purposes only