» » »

Losers Tabs (ver.1)

Artists:  A B C D E F G H I J K L M N O P Q R S T U V W X Y Z # 

Losers Tabs (ver.1)

Dave Van Ronk
Rating:
5/5 (1 vote)

Tabs too difficult? Try these video lessons and learn fast.
                


This is an acoustic blues in dropped D. It is written and recorded by
Dave Van Ronk. It is on two CD's: Going Back to Brooklyn and Chrestomathy.
I transcribed his fingerpicking using Guitar Pro software and converted it
to a plain text file which is pretty silly. I am Rich Rosenthal,
others if I can get this one by the tab police.


 (Capo 2)

     Dm                         Gm
E||--------1-----1--1--------|--------3-----3--3--------|
B||--------3-----3--3--------|--------3-----3--3--------|
G||-----2-----2-----------2--|-----3-----3-----------3--|
D||--------3-----------3-----|--------5-----------5-----|
A||--------------------------|--------------------------|
D||--0-----------0-----------|--5-----------5-----------|


  Dm                         A#7     A7                Dm        A7
--------1-----1--1--------|-------1-----0--0--------|-------1---------0----|
--------3-----3--3--------|-------3-----2--2--------|-------3---------2----|
-----2-----2-----------2--|----------0-----------0--|-------2---------0----|
--------3-----------3-----|-------3-----------2-----|-------3---------2----|
--------------------------|--1----------0-----------|----------------------|
--0-----------0-----------|-------------------------|--0---------2---------|


  F         G            A#7          A7         Dm
-------1---------3----|-------1----0--0-------|-------1-------1--------|
-------1---------3----|-------3----2--2-------|-------3----------------|
-------2---------4----|-----------------------|-------2-------------2--|
-------3---------5----|-------3----------2----|-------3----------3-----|
----------------------|--1---------0----------|------------------------|
--3---------5---------|-----------------------|--0---------0-----------|


  F                         Dm                         Dm
--------1-----1--1-------|--------1-----1--1--------|--1-------1-----1-------|
--------1-----1--1-------|--------3-----3--3--------|--3-------3-----3-------|
-----2-----2-------------|-----2-----2-----------2--|--2-------2-----2-------|
--------3-----------3----|--------3-----------3-----|-------3-----------3----|
-------------------------|--------------------------|------------------------|
--3-----------3----------|--0-----------0-----------|--0----------0----------|


  A#7         A7            Dm        A7           F         G
--------1-----0--0-------|-------1---------0----|-------1---------3----|
--------3-----2--2-------|-------3---------2----|-------1---------3----|
-----1-----1-------------|-------2---------0----|-------2---------4----|
--------3-----------2----|-------3---------2----|-------3---------5----|
--1-----------0----------|----------------------|----------------------|
-------------------------|--0---------2---------|--3---------5---------|


  A#7     A7                Dm                     A#7      A7
-------1-----0--0--------|-------1----0---------|--1--1--------0--0--------|
-------3-----2--2--------|-------3----1---------|--3--3--------2--2--------|
----------0-----------0--|-------2----0---------|-----------0-----------0--|
-------3-----------2-----|-------3---------2----|--------3-----------2-----|
--1----------0-----------|------------3---------|--1-----------0-----------|
-------------------------|--0-------------------|--------------------------|


  Dm        C            A#7        A7
-------1----0---------|--1--1-------0--0-------||
-------3----1---------|--3--3-------2--2-------||
-------2----0---------|--1----------0----------||
-------3---------2----|--3-----3----2-----2----||
------------3---------|--1----------0----------||
--0-------------------|------------------------||
            
Tabs too difficult? Try these video lessons and learn fast.




comments powered by Disqus
↑ Back to top | Tablatures and chords are parodies/interpretations of the original songs. You may use it for private study, scholarship, research or language learning purposes only