» » »

You And Me Tabs (ver.1)

Artists:  A B C D E F G H I J K L M N O P Q R S T U V W X Y Z # 

You And Me Tabs (ver.1)

Dave Matthews Band
Rating:
0/5 (0 votes)

Hard to play? Try these video lessons and learn fast.
                Verse:

e|----------------3---3-------------------------|------------------------------|
B|----------------3---3-------------------------|----3-3-3-3-3-3------3--------|
G|----------------4---4--------0--0-0-0-3-0-3-0-|----0-0-0-0-0-2------2--------|
D|------4-4-4-4-4-5-4-5-4-----2---2-2-2-4-2-4-2-|x3--x-x-x-x-x-x------x--------|
A|----5---5-5-5-5-5-5-5-5---2-----2-2-2-4-2-4-2-|----3-3-3-3-3—0------0--------|
E|--3-----3-3-3-3-3-3-3-3--0------0-0-0-0-0---0-|------------------------------|

Pre-Chorus:

e|------------------(5)-----------|
B|-3-3-3-3-3-3-3-3-3-3------------|
G|-0-0-0-0-2-2-2-x-x-x------------|
D|-x-x-x-x-x-x-x-4-4-4------------|
A|-3-3-3-3-0-0-0-5-5-5------------|
E|--------------------------------|

Chorus:

e|--2-2-2-2-----------------|
B|--3-3-3-3--2-2--3-x-3-----|
G|--2-2-2-2--2-2--2-x-2-----|
D|--0-0-0-0--2-2--0-x-0-----|
A|-----------0-0------------|
E|--------------------------|

Bridge:

e|---------------------------------------|-----------------------------3-------3---|
B|-3-3-3-3-3-3-3-3-3-3-3-3-3-3-3-2-2-2-2-|----3-3-3-3-3-3-3-3-3--3-----3-3-----3---|
G|-0-0-0-0-0-0-0-0-0-0-0-0-0-0-0-2-2-2-2-|-x2-0-0-0-0-0-0-0-0-0--0-----2-0-----2---|
D|-x-x-x-x-x-x-x-x-x-x-x-x-x-x-x-2-2-2-2-|----x-x-x-x-x-x-x-x-x--x-----2-x-----2---|
A|-3-3-3-3-3-2-2-2-2-2-1-1-1-1-1-0-0-0-0-|----3-3-3-3-3-2-2-2-2—-3p2p0-0-3p2p0-0---|
E|---------------------------------------|-----------------------------------------|

-------3--|---2-2-2|
-3-----3--|---3-3-3|
-0-----2--|---2-2-2|
-x-----2--|x2-0-0-0|
-3p2p0-0--|--------|
----------|--------|

Ending:

e|------------3----3---3---------------------|-3---------|--|-3--------------|
B|------------3----3---3---------------------|-3-3-3-3-3-|--|-3--------------|
G|------------4----4---4------0--0-0-3-0-3-0-|-4-0-0-2-0-|--|-0--------------|
D|------4-4-4-5--4-5-4-5-----2---2-2-4-2-4-2-|-5-2-0-0-0-|x2|-0-(Let ring)---|
A|----5---5-5-5--5-5-5-5---2-----2-2-4-2-4-2-|-5-3-2-0-2-|--|-2--------------|
E|--3-----3-3-3--3-3-3-3--0------0-0-0-0---0-|-3-----2-3-|--|-3--------------|


(Last Riff is simplified, if i work it out i'll post a new version.)
            
Hard to play? Try these video lessons and learn fast. | Correct




comments powered by Disqus
↑ Back to top | Tablatures and chords are parodies/interpretations of the original songs. You may use it for private study, scholarship, research or language learning purposes only