» » »

This Old Wound Tabs (ver.1)

Artists:  A B C D E F G H I J K L M N O P Q R S T U V W X Y Z # 

This Old Wound Tabs (ver.1)

Dashboard Confessional
Rating:
0/5 (0 votes)

Hard to play? Try these video lessons and learn fast.
                Drop D tuning

------6-------4-------4-------8--6--------4-------4-------11-------4-------4------
----8-------4-------4-------8-----------4-------4-------8--------4-------4--------
--8-------4-------4-------8-------8---4-------4-------8--------4-------4----------
8-------4-------6-------8-----------4-------6-------8--------4-------6------------

-------------------------------------
------8--6-------4-----4-------------
-------------------------------------
----8----------4------4--------------
--8-------8--4------4----------------
8----------4------6------------------
            
Hard to play? Try these video lessons and learn fast. | Correct




comments powered by Disqus
↑ Back to top | Tablatures and chords are parodies/interpretations of the original songs. You may use it for private study, scholarship, research or language learning purposes only