» » »

This Bitter Pill Tabs (ver.2)

Artists:  A B C D E F G H I J K L M N O P Q R S T U V W X Y Z # 

This Bitter Pill Tabs (ver.2)

Dashboard Confessional
Rating:
0/5 (0 votes)

Hard to play? Try these video lessons and learn fast.
                I got this off of dashtabs.com when it worked.  It should be right.  Tell me if its not.

This Bitter Pill
By Dashboard Confessional

Tuning: (Eb, Bb, Gb, Db, Ab, Eb)

Verse:
Eb|--0---0---0---0---0---0---0--|
Bb|--0---0---0---0---0---0---0--|
Gb|--4h5-4---0---0---0---4---2--|  Play 3x
Db|--0---0---0---2---4---0---0--|
Ab|--5---5---5---3---5---5---3--|
Eb|-----------------------------|

End of Verse:  "Swallow, choke..."
Eb|--0---0---0---0--|
Bb|--0---0---0---0--|
Gb|--0---0---4---0--|
Db|--2---4---0---0--|
Ab|--3---5---5---5--|
Eb|-----------------|

Chorus:  "And this bitter pill..."
Eb|--3---x---0---x--|
Bb|--3---7---5---7--|
Gb|--0---7---0---7--|  Play 2x
Db|--0---0---7---0--|
Ab|--2---0---7---0--|
Eb|--3-------0------|

End of Chorus:
Eb|--0---x---0---0--|
Bb|--0---7---0---0--|
Gb|--5---7---4---0--|
Db|--7---0---0---0--|
Ab|--7---0---5---5--|
Eb|-----------------|

Second Chorus:
Eb|--3---x---0---x--|
Bb|--3---7---5---7--|
Gb|--0---7---0---7--|  Play 2x
Db|--0---0---7---0--|
Ab|--2---0---7---0--|
Eb|--3-------0------|

End of Chorus
Eb|--0---x--|
Bb|--0---7--|
Gb|--5---7--|
Db|--7---0--|
Ab|--7---0--|
Eb|---------|

Outro: "Wearing out..."
Eb|--0---0---0---0---0---0--|
Bb|--0---0---0---0---0---0--|
Gb|--0---0---0---0---0---0--|  Play 2x
Db|--0---4---5---0---4---5--|
Ab|--2---2---2---2---2---2--|
Eb|--3---3---3---3---3---3--|

Eb|--0---x--|
Bb|--0---7--|
Gb|--4---7--|
Db|--0---0--|
Ab|--5---0--|
Eb|---------|

------------------------------------
End Song On
Eb|--3--|
Bb|--3--|
Gb|--0--|
Db|--0--|
Ab|--2--|
Eb|--3--|


Enjoy!
            
Hard to play? Try these video lessons and learn fast. | Correct




comments powered by Disqus
↑ Back to top | Tablatures and chords are parodies/interpretations of the original songs. You may use it for private study, scholarship, research or language learning purposes only