» » »

Dashboard Confessional, The Sharp Hint Of New Tears Tabs (ver.3)

Artists:  A B C D E F G H I J K L M N O P Q R S T U V W X Y Z # 

The Sharp Hint Of New Tears Tabs (ver.3)

Dashboard Confessional Tabs
 Rating:
4/5 (4 votes)
The Sharp Hint Of New Tears lessons Tabs too difficult? Try these video lessons and learn fast
                This sequence is repeated throughout the whole song.


E----2--2--2--2--2---------2--2--2--2--2--2--2--2--
B----3--3--3--3--3---------3--3--3--3--3--3--3--3--
G----2--2--2--2--2---------2--2--2--2--2--2--2--2--
D----0--0--0--0--0---------0--0--0--0--0--0--0--0--
A----0--0--0--0--0---------0--0--0--0--0--0--0--0--
E----x--x--x--x--x---------x--x--x--x--x--x--x--x--


E----2--2--2--2--2---------2--2--2--2--2--2--2--2--
B----2--2--2--2--2---------2--2--2--2--2--2--2--2--
G----2--2--2--2--2---------2--2--2--2--2--2--2--2--
D----2--2--2--2--2---------2--2--2--2--2--2--2--2--
A----0--0--0--0--0---------0--0--0--0--0--0--0--0--
E----0--0--0--0--0---------0--0--0--0--0--0--0--0--


E----3--3--3--3--3---------3--3--3--3--3--3--3--3--
B----2--2--2--2--2---------2--2--2--2--2--2--2--2--
G----0--0--0--0--0---------0--0--0--0--0--0--0--0--
D----0--0--0--0--0---------0--0--0--0--0--0--0--0--
A----0--0--0--0--0---------0--0--0--0--0--0--0--0--
E----3--3--3--3--3---------3--3--3--3--3--3--3--3--


Then start back at the beginning.
            
Submit corrections

comments powered by Disqus
↑ Back to top | Dashboard Confessional Tabs for The Sharp Hint Of New Tears. Lyrics for acoustic guitar and electric guitar. Tablatures and chords are parodies/interpretations of the original songs. You may use it for private study, scholarship, research or language learning purposes only