» » »

Dashboard Confessional, The Brilliant Dance Tabs (ver.5)

Artists:  A B C D E F G H I J K L M N O P Q R S T U V W X Y Z # 

The Brilliant Dance Tabs (ver.5)

Dashboard Confessional Tabs
 Rating:
4/5 (4 votes)
The Brilliant Dance lessons Tabs too difficult? Try these video lessons and learn fast
                

E down 1 1/2 steps
B down 1 1/2 steps
G down 2 steps
D down 1/2 step
A down 1/2 step
E down 1 1/2 steps to Db

so letting the numbers representing the frets, 6 will be G
					       6 will be D
					       6 will be D	
					       6 will be G
					       1 will be A
					       6 will be G

start to about :34
       x2		x1		
|-----0-0---0-0|---0-0----0-0--|-----0-0----0-0-|  
|-----0-0---0-0|---0-0----0-0--|-----0-0----0-0-|
|--5------5----|-7------7------|-10------10-----|
|--0------0----|-0------0------|-0-------0------|
|--5------5----|-7------7------|-10------10-----|
|--0------0----|-0------0------|-0-------0------|

           :34 until 1:07 (this part is played twice)
           x2      after 2nd time play 
e|---0--0--0---0--|---0----0---------------------------------------------------|
B|---0--0--0---0--|---0-h--0---------------------------------------------------|
G|---0--0--0---0--|---0-o--0---------------------------------------------------|
D|---7--9--11--12-|---9-l--7---------------------------------------------------|
A|---5--7--9---10-|---7-d--5---------------------------------------------------|
E|---7--9--11--12-|---9----7---------------------------------------------------|

now back to verse 1:07-1:41

into chorus at 1:41 untill 2:13 then
e|--0--0--0---0----------------------------------------------------------------|
B|--0--0--0---0----------------------------------------------------------------|
G|--5--7--9---10---------------------------------------------------------------|
D|--7--9--11--12---------------------------------------------------------------|
A|--5--7--9---10---------------------------------------------------------------|
E|--7--9--11--12---------------------------------------------------------------|
            
Submit corrections

comments powered by Disqus
↑ Back to top | Dashboard Confessional Tabs for The Brilliant Dance. Lyrics for acoustic guitar and electric guitar. Tablatures and chords are parodies/interpretations of the original songs. You may use it for private study, scholarship, research or language learning purposes only