» » »

Best Deceptions Tabs (ver.3)

Artists:  A B C D E F G H I J K L M N O P Q R S T U V W X Y Z # 

Best Deceptions Tabs (ver.3)

Dashboard Confessional
Rating:
4/5 (9 votes)

Tabs too difficult? Try these video lessons and learn fast.
                Best Deceptions

this song is great and one of my favourites as a long time chris fan...hopefully 
they'll release it soon.
tuning: Db Ab Db Gb Ab Db
Leave the Ab Db strings open the entire time you're strumming and strum them as well. 
For the strumming pattern listen to the song b/c its a bit tricky.

Intro
----------------------------------------------------
----------------------------------------------------
----------------------------------------------------
-----7--4-------7--4-------7--4--5--4--2--4---------
---5-------4--5-------2--5--------------------------
-0--------------------------------------------------

Verse (guitar 2 continues playin intro)
----------------------------------------------------
----------------------------------------------------
-7--7------7--7-------4--4--------------------------
-x--x------x--x-------x--x-------5--4--2--4---------
-5--5------4--4-------2--2-------2--2--2--2---------
-0--0------0--0-------0--0-------0--0--0--0---------

Chorus

----------------------------------------------------
----------------------------------------------------
-7-7-7-7-7-7-7-7---14-14-14-14---12-12-12-12--------
-7-7-7-7-7-7-7-7---14-14-14-14---12-12-12-12--------
-5-5-5-5-5-5-5-5---12-12-12-14---10-10-10-10--------
-0-0-0-0-0-0-0-0----0--0--0--0----0--0--0--0--------

Chorus B

----------------------------------------------------
-7-----------------14-14-14-14---12-12-12-12--------
-7-----------------14-14-14-14---12-12-12-12--------
-5-----------------12-12-12-14---10-10-10-10--------
-0------------------0--0--0--0----0--0--0--0--------

Outro

----------------------------------------------------
-7-------14-------12-------9-------11-------14------
-7---8x--14--8x--12---8x--9---4x--11--3x--14---1x---
-5-------12-------10-------7--------9-------12------
-0--------0--------0-------0--------0--------0------

Intro 2x \ 
Verse 6x \
Chorus 4x repeat
Chorusb 1x /
Chorus 5x /

Outro 4x 
end on 
------
--15--
------ 
--12--
------
------

Lyrics:

Verse1:I heard about your trip
I heard about your souveniers
I heard about the cool breeze, and the cool nights and the cool guys that you spent 
them with
Well i guess I shouldve heard of them from you
I guess I shouldve heard of them from you

Chrous: Dont you see?  Dont you see?
That the charade is over.
And all the "Best Deceptions" and the "Clever Cover Story" awards
They go to you
So kiss me hard
Cuz this will be the last time that I let you
You will be back some day
And this awkward kiss that tells of other people's lips
Will be of service to giving you away

Verse2: I heard about your regrets
I heard that you were feeling sorry
I heard from someone that you wish you could set things right between us
Well I guess I shouldve heard of it from you
I guess I shouldve heard of it from you

Chorus

Outro: I'm waiting for blood to flow to my fingers
I'll be alright once my hands get warm
Ignoring the phone I'd rather say nothing
I'd rather you never heard my voice
You're calling too late too late to be gracious
And you do not warrant long good byes
You're calling too late you're calling too late you're calling too laaaaate
            
Tabs too difficult? Try these video lessons and learn fast.


comments powered by Disqus
↑ Back to top | Tablatures and chords are parodies/interpretations of the original songs. You may use it for private study, scholarship, research or language learning purposes only