» » »

Dashboard Confessional, Standard Lines Tabs (ver.3)

Artists:  A B C D E F G H I J K L M N O P Q R S T U V W X Y Z # 

Standard Lines Tabs (ver.3)

Dashboard Confessional Tabs
 Rating:
4/5 (4 votes)
Standard Lines lessons Tabs too difficult? Try these video lessons and learn fast
                This is Standard Lines by Dashboard Confessional.  The tuning is half a step down.  If you have any corrections, please e-mail me.
0:00
Eb|----------------------------------------------------------------------------------------0--------------|
Bb|--------0-----------------------------------------------------------------------------------------0---|
Gb|-------------1-2-1------------2--------2-1----------------1-2-1--------------1h2------1h2------|
Db|-----2---------------2-----2---------2------------------2-----------2-------2----------------------|
Ab|----------0-------------4----------0----------2-----0---------------------0-------------------------|
Eb|---0----------------------------------------------2----------------------2----------------------------|

Eb|----------------------------------------------------------------0--------------------------|
Bb|----------0-----------------------0-------------------------------------------0-----------|
Gb|------------------------------------------------------------2------------1-0----0-1------|
Db|------2---------6/4/6/4---4/2------2---4/6/4---2----4------------2---------------2---|
Ab|------------0-----------------------------------------4-----------2-----------------------|
Eb|---0---------------------------------------------------------------------------------------|
0:18         Which of the bold faced lies will we use?
Eb|---4-4-4-4-4-4-4-4-|-0------------------------|
Bb|---4-4-4-4-4-4-4-4-|-0----------let-----------|
Gb|---4-4-4-4-4-4-4-4-|-1--------chord---------|
Db|---6-6-6-6-6-6-6-6-|-2---------ring----------|
Ab|---6-6-6-6-6-6-6-6-|-2------------------------|
Eb|---0-0-0-0-0-0-0-0-|-0------------------------|
           I hope that you’re happy.  You really deserve it,
Eb|--4-4-4-4-4-5----4-----0-0-0-----------------------0-|
Bb|--4-4-4-4-4-5----4-----0-0-0-----------------------0-|
Gb|--4-4-4-4-4-5----4-----1-0-1-----------------------1-|
Db|--6-6-6-6-6-7----6-----2-4-2-----------------------2-|
Ab|--6-6-6-6-6-7----6-----2-4-2-----------------------2-|
Eb|--0-0-0-0-0-0----0-----0-0-0-----------------------0-|
              this will be best for us both in the end.
Eb|---4-4-4-4-4-4-4-4-|-0------------------------|
Bb|---4-4-4-4-4-4-4-4-|-0----------let-----------|
Gb|---4-4-4-4-4-4-4-4-|-1--------chord---------|
Db|---6-6-6-6-6-6-6-6-|-2---------ring----------|
Ab|---6-6-6-6-6-6-6-6-|-2------------------------|
Eb|---0-0-0-0-0-0-0-0-|-0------------------------|

Eb|--4-4-4-4-4-5----4-----0-0-0-----------------------0-|
Bb|--4-4-4-4-4-5----4-----0-0-0-----------------------0-|
Gb|--4-4-4-4-4-5----4-----1-0-1-----------------------1-|
Db|--6-6-6-6-6-7----6-----2-4-2-----------------------2-|
Ab|--6-6-6-6-6-7----6-----2-4-2-----------------------2-|
Eb|--0-0-0-0-0-0----0-----0-0-0-----------------------0-|
0:38  But your taste still lingers on my lips like I just placed them upon yours
Eb|---------------------0--------------0----------0--0--0--0--0--0--0--0--|
Bb|---------------------0--------------0----------0--0--0--0--0--0--0--0--|
Gb|---------------------1--------------3----------6--6--6--6--6--6--6--6--|
Db|---------------------2--------------4----------7--7--7--7--7--7--7--7--|
Ab|---x--x--2---------2---x---x---4-4---x---x-7--7--7--7--7--7--7--7--|
Eb|---x--x--0---------0---x---x---0-0---x---x-0--0--0--0--0--0--0--0--|
         and I starve.        I starve for you.
Eb|------------x---x--x-x-x-x--|-0-0-0-0-0-0-0-0-|
Bb|-----------10--9--7-5-5-7--|-0-0-0-0-0-0-0-0-|
Gb|------------x--x--x-x-x-x--|-1-1-1-1-1-1-1-1-|
Db|-----------7---6--4-2-2-4--|-2-2-2-2-2-2-2-2-|
Ab|-----------x---x--x-x-x-x--|-2-2-2-2-2-2-2-2-|
Eb|-----------0---0--0-0-0-0--|-0-0-0-0-0-0-0-0-|
          But this new diet’s liquid and dulling to the senses
Eb|--------------------0--------0----------0--0--0--0--0--0--0--0--|
Bb|--------------------0--------0----------0--0--0--0--0--0--0--0--|
Gb|--------------------1--------3----------6--6--6--6--6--6--6--6--|
Db|-------------------2---------4----------7--7--7--7--7--7--7--7--|
Ab|---x--x--2--------2-x-x-4-4---x---x-7--7--7--7--7--7--7--7--|
Eb|---x--x--0--------0-x-x-0-0---x---x-0--0--0--0--0--0--0--0--|
         and it’s crude     but it will do.
Eb|------------x---x--x-x-x-x--|-0-0-0-0-0-0-0-0-|
Bb|-----------10--9--7-5-5-7--|-0-0-0-0-0-0-0-0-|
Gb|------------x--x--x-x-x-x--|-1-1-1-1-1-1-1-1-|
Db|-----------7---6--4-2-2-4--|-2-2-2-2-2-2-2-2-|
Ab|-----------x---x--x-x-x-x--|-2-2-2-2-2-2-2-2-|
Eb|-----------0---0--0-0-0-0--|-0-0-0-0-0-0-0-0-|
0:58
Eb|----------------------------------------------------------------------------------------0--------------|
Bb|--------0-----------------------------------------------------------------------------------------0---|
Gb|-------------1-2-1------------2--------2-1----------------1-2-1--------------1h2------1h2------|
Db|-----2---------------2-----2---------2------------------2-----------2-------2----------------------|
Ab|----------0-------------4----------0----------2-----0---------------------0-------------------------|
Eb|---0----------------------------------------------2----------------------2----------------------------|

Eb|----------------------------------------------------------------0---------------------0-x-x-|
Bb|----------0-----------------------0-------------------------------------------0------0-x-x-|
Gb|------------------------------------------------------------2------------1-0----0---1-x-x-|
Db|------2---------6/4/6/4---4/2------2---4/6/4---2----4------------2--------------2-x-x-|
Ab|------------0-----------------------------------------4-----------2------------------2-x-x-|
Eb|---0----------------------------------------------------------------------------------0-x-x-|
1:17    So which of the standard lines will we use?
Eb|---4-4-4-4-4-4-4-4-|-0------------------------|
Bb|---4-4-4-4-4-4-4-4-|-0----------let-----------|
Gb|---4-4-4-4-4-4-4-4-|-1--------chord---------|
Db|---6-6-6-6-6-6-6-6-|-2---------ring----------|
Ab|---6-6-6-6-6-6-6-6-|-2------------------------|
Eb|---0-0-0-0-0-0-0-0-|-0------------------------|
       I’ve been meaning to call you.  I’ve just been so busy.
Eb|--4-4---4-4-4---5----4-----0-0-0-----------------------0-|
Bb|--4-4---4-4-4---5----4-----0-0-0-----------------------0-|
Gb|--4-4---4-4-4---5----4-----1-0-1-----------------------1-|
Db|--6-6---6-6-6---7----6-----2-4-2-----------------------2-|
Ab|--6-6---6-6-6---7----6-----2-4-2-----------------------2-|
Eb|--0-0---0-0-0---0----0-----0-0-0-----------------------0-|
             We’ll catch up soon.
Eb|---4-4-4-4-4-4-4-4-|-0--0---------------------|
Bb|---4-4-4-4-4-4-4-4-|-0----0-2---2-0-2-------|
Gb|---4-4-4-4-4-4-4-4-|-1--------1--------------|
Db|---6-6-6-6-6-6-6-6-|-2------------------------|
Ab|---6-6-6-6-6-6-6-6-|-2------------------------|
Eb|---0-0-0-0-0-0-0-0-|-0------------------------|
      Let’s make it a point to.
Eb|--4-4-4-4-4-5-4--0-0-0-------------0----0-|
Bb|--4-4-4-4-4-5-4--0-0-0-------------0----0-|
Gb|--4-4-4-4-4-5-4--1-0-1-------------1----1-|
Db|--6-6-6-6-6-7-6--2-4-2-------------2----2-|
Ab|--6-6-6-6-6-7-6--2-4-2-------------2----2-|
Eb|--0-0-0-0-0-0-0--0-0-0-------------0----0-|
 But your taste still lingers on my lips like I just placed them upon yours
Eb|---------------------0--------------0----------0--0--0--0--0--0--0--0--|
Bb|---------------------0--------------0----------0--0--0--0--0--0--0--0--|
Gb|---------------------1--------------3----------6--6--6--6--6--6--6--6--|
Db|---------------------2--------------4----------7--7--7--7--7--7--7--7--|
Ab|---x--x--2---------2---x---x---4-4---x---x-7--7--7--7--7--7--7--7--|
Eb|---x--x--0---------0---x---x---0-0---x---x-0--0--0--0--0--0--0--0--|
         and I starve.        I starve for you.
Eb|------------x---x--x-x-x-x--|-0-0-0-0-0-0-0-0-|
Bb|-----------10--9--7-5-5-7--|-0-0-0-0-0-0-0-0-|
Gb|------------x--x--x-x-x-x--|-1-1-1-1-1-1-1-1-|
Db|-----------7---6--4-2-2-4--|-2-2-2-2-2-2-2-2-|
Ab|-----------x---x--x-x-x-x--|-2-2-2-2-2-2-2-2-|
Eb|-----------0---0--0-0-0-0--|-0-0-0-0-0-0-0-0-|
          But this new diet’s liquid and dulling to the senses
Eb|---------------------0--------------0----------0--0--0--0--0--0--0--0--|
Bb|---------------------0--------------0----------0--0--0--0--0--0--0--0--|
Gb|---------------------1--------------3----------6--6--6--6--6--6--6--6--|
Db|---------------------2--------------4----------7--7--7--7--7--7--7--7--|
Ab|---x--x--2---------2---x---x---4-4---x---x-7--7--7--7--7--7--7--7--|
Eb|---x--x--0---------0---x---x---0-0---x---x-0--0--0--0--0--0--0--0--|
         and it’s crude.       But it will do.
Eb|------------x---x--x-x-x-x--|-0-0-0-0-0-0-0-0-|
Bb|-----------10--9--7-5-5-7--|-0-0-0-0-0-0-0-0-|
Gb|------------x--x--x-x-x-x--|-1-1-1-1-1-1-1-1-|
Db|-----------7---6--4-2-2-4--|-2-2-2-2-2-2-2-2-|
Ab|-----------x---x--x-x-x-x--|-2-2-2-2-2-2-2-2-|
Eb|-----------0---0--0-0-0-0--|-0-0-0-0-0-0-0-0-|
                                                                 It  will do.                                I hope it will do.
Eb|----------------------------------------------------------------------------------------0--------------|
Bb|--------0-----------------------------------------------------------------------------------------0---|
Gb|-------------1-2-1------------2--------2-1----------------1-2-1--------------1h2------1h2------|
Db|-----2---------------2-----2---------2------------------2-----------2-------2----------------------|
Ab|----------0-------------4----------0----------2-----0---------------------0-------------------------|
Eb|---0----------------------------------------------2----------------------2----------------------------|

Eb|----------------------------------------------------------------0---------------------------0-|
Bb|----------0-----------------------0-------------------------------------------0------------0-|
Gb|------------------------------------------------------------2------------1-0----0-1-------1-|
Db|------2---------6/4/6/4---4/2------2---4/6/4---2----4------------2---------------2----2-|
Ab|------------0-----------------------------------------4-----------2------------------------2-|
Eb|---0----------------------------------------------------------------------------------------0-|
            
Submit corrections

comments powered by Disqus
↑ Back to top | Dashboard Confessional Tabs for Standard Lines. Lyrics for acoustic guitar and electric guitar. Tablatures and chords are parodies/interpretations of the original songs. You may use it for private study, scholarship, research or language learning purposes only