» » »

So Long Sweet Summer Tabs (ver.2)

Artists:  A B C D E F G H I J K L M N O P Q R S T U V W X Y Z # 

So Long Sweet Summer Tabs (ver.2)

Dashboard Confessional
Rating:
0/5 (0 votes)

Hard to play? Try these video lessons and learn fast.
                
Tuning:1/2 step down

Intro
e|--5--------------------------------------|
B|----3------------------------------------|
G|------6-7-6/2----2-----------------------| x2
D|--------------0----0--------0------------|
A|----------------2----2-----0---0---------|
E|-----------------------0--5---2---7--3---|

Verse
        D        A        B        G9
e|------2--------0------------------3--|    Palm mute the 3rd time around,
B|------3--------2---------3--------3--|    strum normally! (Listen to song 
G|------2--------2---------4--------0--| x4 for the strumming pattern)
D|------0--------2---------4--------0--|
A|---------------0---------2--------2--|
E|----------------------------------3--|


Pre-Chorus
e|--2------2-----------0-------------0------5------3--------|
B|----3-----3--------3---3---------3---3------0------0------|
G|------2----2-----2-------2-----2-------2------0------0----| x4
D|----------------------------------------------------------|
A|--------------0-------------2-----------------------------|
E|----------------------------------------------------------|


Repeat Verse
Repeat Intro

Outro
e|-----------------------------------------------------|
B|-----------------------------------------------------|
G|-----------------------------------------------------|
D|-----7-7-7-7-7-7---4-4-4----9---5-5-5-5-5-5-5-5------| x8
A|-----7-7-7-7-7-7---4-4-4----9---5-5-5-5-5-5-5-5------|
E|-----5-5-5-5-5-5---2-2-2----7---3-3-3-3-3-3-3-3------|

Repeat Intro x1

Have fun guys....Any questions??? Didn't think so!!!
            
Hard to play? Try these video lessons and learn fast. | Correct




comments powered by Disqus
↑ Back to top | Tablatures and chords are parodies/interpretations of the original songs. You may use it for private study, scholarship, research or language learning purposes only