» » »

Remember To Breathe Tabs (ver.2)

Artists:  A B C D E F G H I J K L M N O P Q R S T U V W X Y Z # 

Remember To Breathe Tabs (ver.2)

Dashboard Confessional
Rating:
0/5 (0 votes)

Hard to play? Try these video lessons and learn fast.
                this is the rhythm and tab for the whole song:

Eb-0-0-0-0--0-0-00-0-0-0-0--00-0-- 
Bb-5-5-5-5--5-5-55-5-5-5-5--55-5-- 
Gb-4-4-4-4--4-4-44-4-4-4-4--44-4-- 
Db-2-2-2-2--2-2-22-2-2-2-2--22-2--
Ab-4-4-4-0--0-0-00-x-x-x-x--xx-x-- 
Eb-----------------4-4-4-0--00-0--

except for the last line which is:

Eb-0-0-0-0--0-0-00-----------------
Bb-5-5-5-5--5-5-55----------------- 
Gb-4-4-4-4--4-4-44----------------- 
Db-2-2-2-2--2-2-22-----------------
Ab-4-4-4-0--0-0-00----------------- 
Eb-------------------4-5-4-0-------
            
Hard to play? Try these video lessons and learn fast. | Correct




comments powered by Disqus
↑ Back to top | Tablatures and chords are parodies/interpretations of the original songs. You may use it for private study, scholarship, research or language learning purposes only