» » »

Dashboard Confessional, Jamie Tabs (ver.1)

Artists:  A B C D E F G H I J K L M N O P Q R S T U V W X Y Z # 

Jamie Tabs (ver.1)

Dashboard Confessional Tabs
 Rating:
4/5 (4 votes)
Jamie lessons Tabs too difficult? Try these video lessons and learn fast
                "Jamie"
Originally by Weezer
Covered by Dashboard Confessional


Note:  Tabbed just the chords...not the rythm obviously.

Tuning:  like DADDDD except don't mess with the G string.
B string brought from Bb UP TO Db

Thanks to the other guy on his submission for this song.  
I used some of his stuff but changed the tuning as well
as some other things.

Db--(12)------------------- 
Db--(12)-------------------
Gb--(12)-------------------
Db--(12)-------------------    
Ab--(12)-------------------
Db--(12)-------------------

Db--0----0----------------- 
Db--0----0-----------------
Gb--x----7----------------- 
Db--5----7-----------------    
Ab--5----5-----------------
Db--5----X-----------------

Db--x----x----x----x-------
Db--x----x----x----x-------
Gb--x----x----x----5------- 
Db--5----0----2----5-------  
Ab--5----0----2----3-------
Db--5----0----2----x-------

Db--0----0----------------- 
Db--0----0-----------------
Gb--x----7----------------- 
Db--5----7-----------------    
Ab--5----5-----------------
Db--5----X-----------------

Db-------------------------
Db-------------------------
Gb--7s9--------------------
Db-------9--10--10s7--5----   
Ab--5s7---------------5----
Db-------9--10--10s7--5----


Db--0----0----0----0----0----0----0----0----0
Db--0----0----0----0----0----0----0----0----0
Gb--x----x----x----x----5----x----x----x----5 
Db--5----0----2----0----5----5----0----2----5
Ab--5----0----2----0----3----5----0----2----3
Db--5----0----2----0----x----5----0----2----x

------------------Repeat---------------------------

Db--0----0----0----0----0----0----0----0----0
Db--0----0----0----0----0----0----0----0----0
Gb--x----x----x----x----5----x----x----x----5 
Db--5----0----2----0----5----5----0----2----5
Ab--5----0----2----0----3----5----0----2----3
Db--5----0----2----0----x----5----0----2----x

Db--x----x----x----x-------
Db--x----x----x----x-------
Gb--x----x----x----5------- 
Db--5----0----2----5-------  
Ab--5----0----2----3-------
Db--5----0----2----x-------

Db--0----0----------------- 
Db--0----0-----------------
Gb--x----7----------------- 
Db--5----7-----------------    
Ab--5----5-----------------
Db--5----X-----------------

Db--x----x----x----x-------
Db--x----x----x----x-------
Gb--x----x----x----5------- 
Db--5----0----2----5-------  
Ab--5----0----2----3-------
Db--5----0----2----x-------

Db--0----0----------------- 
Db--0----0-----------------
Gb--x----7----------------- 
Db--5----7-----------------    
Ab--5----5-----------------
Db--5----X-----------------

Db--0--0--0-0-0--0--0--0-0-0--0--0--0-0-0--0--0-0-0--0-0-0
Db--9--5--7s9s7--9--5--7s9s7--9--5--7s9s7--9--5s7s5--5s7s5
Gb--------------------------------------------------------
Db--9--5--7s9s7--0--5--7s9s7--9--5--7s9s7--9--5s7s5--5s7s5
Ab--------------------------------------------------------
Db--------------------------------------------------------

The chords for the rest are above...too lazy to type it all out.
            
Submit corrections

comments powered by Disqus
↑ Back to top | Dashboard Confessional Tabs for Jamie. Lyrics for acoustic guitar and electric guitar. Tablatures and chords are parodies/interpretations of the original songs. You may use it for private study, scholarship, research or language learning purposes only