» » »

Dashboard Confessional, Jamie Chords (ver.1)

Artists:  A B C D E F G H I J K L M N O P Q R S T U V W X Y Z # 

Jamie Chords (ver.1)

Dashboard Confessional Tabs
 Rating:
4/5 (4 votes)
Jamie lessons Tabs too difficult? Try these video lessons and learn fast
                Tuning= ebgdaG
G= 355633
B= 244422
E= 022100
D= 000232
C= 332010

Intro.


e-3---3----3---3----3---3----3---3
b-3---3----3---3----3---3----3---3
g-3---3----3---3----3---3----3---3    Bar the whole 3rd fret
d-4---3----4---3----4---3----4---3
a-4---4----4---4----4---4----4---3
G-3---4----3---4----3---4----3---4

Jamie, what you doing now, what you doing now girl

e-3---3----3---3----3---3----3---3----3---3----3---3----3---3----3---3
b-3---3----3---3----3---3----3---3----3---3----3---3----3---3----3---3
g-3---3----3---3----3---3----3---3----3---3----3---3----3---3----3---3      
d-4---3----4---3----4---3----4---3----4---3----4---3----4---3----4---3
a-4---4----4---4----4---4----4---3----4---4----4---4----4---3----4---3
G-3---4----3---4----3---4----3---4----3---4----3---4----3---4----3---4

I need you to know

G          D
When I was down
        B
came to me 
       C                   G
and promised you'll always be
      D
           B
now you're gone 
           C           G
and i'm waiting patiently


e-3---3----3---3----3---3----3---3   Jamie, i want you to know
b-3---3----3---3----3---3----3---3
g-3---3----3---3----3---3----3---3   
d-4---3----4---3----4---3----4---3
a-4---4----4---4----4---4----4---3
G-3---4----3---4----3---4----3---4

G         B
Jamie, oh Jamie,
E      D           C
i'm so glad you're mine
G           D             B   C
We'll be together a long time

e-3---3----3---3----3---3----3---3    Who hoo(x4)
b-3---3----3---3----3---3----3---3
g-3---3----3---3----3---3----3---3   
d-4---3----4---3----4---3----4---3
a-4---4----4---4----4---4----4---3
G-3---4----3---4----3---4----3---4


Jamie, what you doing now?
e-3---3----3---3----3---3----3---3----3---3----3---3----3---3----3---3
b-3---3----3---3----3---3----3---3----3---3----3---3----3---3----3---3
g-3---3----3---3----3---3----3---3----3---3----3---3----3---3----3---3      
d-4---3----4---3----4---3----4---3----4---3----4---3----4---3----4---3
a-4---4----4---4----4---4----4---3----4---4----4---4----4---3----4---3
G-3---4----3---4----3---4----3---4----3---4----3---4----3---4----3---4
do that which you must do

G          D
When I was down
        B
came to me 
       C                   G
and promised you'll always be
      D
           B
now you're gone 
           C           G
and i'm waiting patiently


e-3---3----3---3----3---3----3---3   Jamie, i want you to know
b-3---3----3---3----3---3----3---3
g-3---3----3---3----3---3----3---3   
d-4---3----4---3----4---3----4---3
a-4---4----4---4----4---4----4---3
G-3---4----3---4----3---4----3---4

G         B
Jamie, oh Jamie,
E      D           C
i'm so glad you're mine
G           D             B   C
We'll be together a long time
G          B
You've got the Beach Boys 
E        D              C
and your firm's got the Stones
G          D                   B    C
but I know you won't leave me alone

G            D
Sometimes it seems 
B               C
you're not with me
G           D
It hurts me so much, 
G           D
it hurts me so much
G            D
Sometimes it seems 
B               C
you're not with me
G           D
It hurts me so much, 
G           D
it hurts me so much 


G           D
You are the most, 
          B
you're so rad, 
          C
you're so fresh
           G
And I'm so glad 
G    D              B
I am yours, you are mine
        C                G
Show me where and I will sign

G          D
When I was down
        B
came to me 
       C                   G
and promised you'll always be
      D
           B
now you're gone 
           C     G
and i'm waiting waiting

(Play louder)
G         B
Jamie, oh Jamie,
E      D           C
i'm so glad you're mine
G           D             B   C
We'll be together a long time

G      B
Jamie, believe me, 
E       D       C
I won't let you down
      G
Cause you are 
    D              B    C
the best lawyer in town

(Back to normal)
G            D
Sometimes it seems 
B               C
you're not with me
G           D
It hurts me so much, 

(Louder)
G           D
it hurts me so much
G            D
Sometimes it seems 
B               C
you're not with me
G           D
It hurts me so much, 
G           D
it hurts me so much 

(Softer and softer)
e-3---3----3---3----3---3----3---3    Who hoo(x2)
b-3---3----3---3----3---3----3---3
g-3---3----3---3----3---3----3---3   
d-4---3----4---3----4---3----4---3
a-4---4----4---4----4---4----4---3
G-3---4----3---4----3---4----3---4
            
Submit corrections

comments powered by Disqus
↑ Back to top | Dashboard Confessional Chords for Jamie. Lyrics for acoustic guitar and electric guitar. Tablatures and chords are parodies/interpretations of the original songs. You may use it for private study, scholarship, research or language learning purposes only