» » »

Dashboard Confessional, If You Cant Leave It Be Might As Well Make It Bleed Tabs (ver.1)

Artists:  A B C D E F G H I J K L M N O P Q R S T U V W X Y Z # 

If You Cant Leave It Be Might As Well Make It Bleed Tabs (ver.1)

Dashboard Confessional Tabs
 Rating:
4/5 (4 votes)
If You Cant Leave It Be Might As Well Make It Bleed lessons Tabs too difficult? Try these video lessons and learn fast
                Dashboard Cofessional
"If You Can't Leave It Be, Might As Well Make It Bleed"

Tuning: Eb Ab Db Gb Bb eb

For struming, listen to song

Intro:
eb|-----0--------
Bb|-----0--------
Gb|-----8--------   Play until verse
Db|-----8--------  
Ab|-----6--------
Eb|-----0--------

Verse 1:
eb|----0-------------0---------
Bb|----0-------------0---------
Gb|----1-------------8---------    4x's
Db|----2-------------8--------- 
Ab|----2-------------6---------
Eb|----0-------------0---------

"Scapel, Sutured...
eb|-----0------0------0---------
Bb|-----0------0------0---------
Gb|-----9------6------5---------
Db|-----7------7------5---------    then
Ab|-----5------4------3---------
Eb|-----0------0------0---------

Before verse:
eb|----0-------------0---------
Bb|----0-------------0---------
Gb|----1-------------8---------
Db|----2-------------8---------  2x's
Ab|----2-------------6---------
Eb|----0-------------0---------

Verse 2:
eb|----0-------------0---------
Bb|----0-------------0---------
Gb|----1-------------8---------  4x's
Db|----2-------------8--------- 
Ab|----2-------------6---------
Eb|----0-------------0---------

"Scapel, Sutured...
eb|-----0------0------0---------
Bb|-----0------0------0---------
Gb|-----9------6------5---------
Db|-----7------7------5---------    
Ab|-----5------4------3---------
Eb|-----0------0------0---------


Bridge: (palm-muted)
eb|---x-----x-----x-----x--------
Bb|---x-----x-----x-----x--------
Gb|---1-----x-----x-----x-------- 2x's
Db|---2-----2-----4-----2--------    
Ab|---2-----3-----4-----3--------
Eb|---0-----0-----0-----0--------


"You're wires are frayed... (p-m)
eb|---x-----x-----x-----x--------
Bb|---x-----x-----x-----x--------
Gb|---1-----x-----x-----x-------- 2x's
Db|---2-----2-----4-----2--------    
Ab|---2-----3-----4-----3--------
Eb|---0-----0-----0-----0--------


"Your're pulse is anemic.. (p-m)
eb|---x-----x-----x-----x--------
Bb|---x-----x-----x-----x--------
Gb|---1-----x-----x-----x--------
Db|---2-----2-----4-----2--------    
Ab|---2-----3-----4-----3--------
Eb|---0-----0-----0-----0--------


Open strum
eb|---0-----0-----0-----0--------
Bb|---0-----0-----0-----0--------
Gb|---1-----0-----0-----0-------- 1x then
Db|---2-----2-----4-----2--------    
Ab|---2-----3-----4-----3--------
Eb|---0-----0-----0-----0--------

"And no one is waiting... (o-s)
eb|---0-----0-----0-----0--------
Bb|---0-----0-----0-----0--------
Gb|---1-----0-----0-----0-------- 3x's
Db|---2-----2-----4-----2--------    
Ab|---2-----3-----4-----3--------
Eb|---0-----0-----0-----0--------

Intro:
eb|-----0--------
Bb|-----0--------
Gb|-----8--------   Play until verse
Db|-----8--------  
Ab|-----6--------
Eb|-----0--------

Verse 3:
eb|----0-------------0---------
Bb|----0-------------0---------
Gb|----1-------------8---------  4x's
Db|----2-------------8--------- 
Ab|----2-------------6---------
Eb|----0-------------0---------

"Scapel, Sutured...
eb|-----0------0------0---------
Bb|-----0------0------0---------
Gb|-----9------6------5---------
Db|-----7------7------5---------    
Ab|-----5------4------3---------
Eb|-----0------0------0---------

"You're wires are frayed... 
eb|---0-----0-----0-----0--------
Bb|---0-----0-----0-----0--------
Gb|---1-----0-----0-----0-------- 4x's
Db|---2-----2-----4-----2--------    
Ab|---2-----3-----4-----3--------
Eb|---0-----0-----0-----0--------

Outro:
eb|----0-----
Bb|----0-----
Gb|----8-----
Db|----8----- 
Ab|----6-----
Eb|----0-----

End on:
eb|----0----
Bb|----0----
Gb|----1----   
Db|----2---- 
Ab|----2----
Eb|----0----

Enoch Nora
Laredo, Tx
            
Submit corrections

comments powered by Disqus
↑ Back to top | Dashboard Confessional Tabs for If You Cant Leave It Be Might As Well Make It Bleed. Lyrics for acoustic guitar and electric guitar. Tablatures and chords are parodies/interpretations of the original songs. You may use it for private study, scholarship, research or language learning purposes only