» » »

Hell On The Throat Tabs (ver.2)

Artists:  A B C D E F G H I J K L M N O P Q R S T U V W X Y Z # 

Hell On The Throat Tabs (ver.2)

Dashboard Confessional
Rating:
0/5 (0 votes)

Hard to play? Try these video lessons and learn fast.
                Hell On the Throat- Dashboard Confessionals

Hey this is my first tab so I’m sure its not perfect but I played it with the song and 
sounds good. I didn’t know the proper names for a couple of the chords But I tried to tab 
I thought to be right. If something is wrong just let me know.

Tuned Half a Step Down


    	    C
	eb|----------0-------------0----|
	Bb|-1-------------1-------------|
	Gb|------0-------------0--------|   Intro
	Db|----2-------2-----2-------2--|
	Ab|-3------3------3------3------|
	Eb|-----------------------------|


    C
eb|----------0-------------0-------------0-------------0----|
Bb|-1-------------1-------------1-------------1-------------|
Gb|------0-------------0-------------0-------------0--------|
Db|----2-------2-----2-------2-----2-------2-----2-------2--|
Ab|-3------3------3------3------3------3------3------3------|
Eb|---------------------------------------------------------|
   					                                A line of strands...

      F
eb|----------0-------------0-------------1-------------0----|
Bb|-1-------------1-------------1-------------1-------------|
Gb|------2-------------2-------------2-------------2--------|
Db|----3-------3-----3-------3-----3-------3-----3-------3--|
Ab|-3------3------3------3------3------3------3------3------|
Eb|---------------------------------------------------------|

This is the progression for most of the song but
there are a couple parts in the song where it is the one below.


    C             E             Am            C
eb|----------0-------------0-------------0-------------0----|
Bb|-1-------------0-------------1-------------1-------------|
Gb|------0-------------1-------------2-------------0--------|
Db|----2-------2-----2-------2-----2-------2-----2-------2--|
Ab|-3------3------2------2------0------0--------------------|
Eb|-------------------------------------------3------3------|
 Its Strange to be lost, Stranger still to be lone in the
       F                        C
eb|----------1-------------0-------------0-------------0----|
Bb|-1-------------1-------------1-------------1-------------|
Gb|------2-------------2-------------0-------------0--------|
Db|----3-------3-----3-------3-----2-------2-----2-------2--|
Ab|-3------3------3------3------3------3------3------3------|
Eb|---------------------------------------------------------|
      Strings of a twisting    line

That's kind of how it goes if you just listen to the song and play along with it you'll 
it out
            
Hard to play? Try these video lessons and learn fast. | Correct




comments powered by Disqus
↑ Back to top | Tablatures and chords are parodies/interpretations of the original songs. You may use it for private study, scholarship, research or language learning purposes only