>
 >
Hands Down 2

Hands Down 2 Guitar Tabs

Dashboard Confessional - Hands Down 2 chords, tabs, tablatures, lyrics

Guitar lessons | Add/correct | Request | Top 50 tabs Artists:  A B C D E F G H I J K L M N O P Q R S T U V W X Y Z 0-9

Hands Down 2 Guitar Tabs – Dashboard Confessional

CD, Sheet music, Poster

Do you like Hands Down 2? Share with your friends now
Bass TabsBass Tabs v2ChordsChords v2Chords v3Chords v4Chords v5Chords v6Chords v7Chords v8Chords v9Drum TabsTabsTabs v2Tabs v10Tabs v11Tabs v3Tabs v4Tabs v5Tabs v6Tabs v7Tabs v8Tabs v9UkuleleUkulele v2
e|-------------------------------------------------------------------------|
B|-------------------------------------------------------------------------|
D|--------1------------1-2--------------------1-----------2-1--------------|
G|------4---2--------4-----------4\6--------4---2-------4-----------4\6----|
A|----2------------2-----------2----------2-----------2-----------2--------|
E|--0------------0-----------0----------0-----------0-----------0----------|


e|-------------------------------------------------------------------------|
B|-------------------------------------------------------------------------|
D|--------1------------1-2--------------------1----------------------------|
G|------4---2--------4-----------4\6--------4---2----4----1#---------------|
A|----2------------2-----------2----------2----------4----2#---------------|
E|--0------------0-----------0----------0----------------------------------|

Verse

    >   > < > < > < > < > < > < > <   >   > < > < > < > < > < > < > <
e|-------------------------------------------------------------------------|
B|-------------------------------------------------------------------------|
D|--1---1-1-1-1-1-1-1-1-1-1-1-1-1-1----------------------------------------|
G|--2---2-2-2-2-2-2-2-2-2-2-2-2-2-2---2---2-2-2-2-2-2-2-2-2-2-2-2-2-2------|
A|--2---2-2-2-2-2-2-2-2-2-2-2-2-2-2---4---4-4-4-4-4-4-4-4-4-4-4-4-4-4------|
E|-------------------------------------------------------------------------|
        x x x x x x x x x x x x x x       x x x x x x x x x x x x x x
           Breath in...                Breath in.....

    >   > < > < > < > < > < > < > <   >   > < > < > <   > < > < > < > <
e|-------------------------------------------------------------------------|
B|-------------------------------------------------------------------------|
D|-------------------------------------------------------------------------|
G|--1---2-2-2-2-2-2-2-2-2-2-2-2-2-2---4---4-4-4-4-4-4---7-7-7-7-6-6-6-6----|
A|--0---0-0-0-0-0-0-0-0-0-0-0-0-0-0---2---2-2-2-2-2-2---5-5-5-5-5-5-5-5----|
E|------------------------------------------------------5-5-5-5-5-5-5-5----|
        x x x x x x x x x x x x x x       x x x x x x
    Deep. This air...                 blessed you       share with 

    >   > < > < > < > < > < > < > <   >   > < > < > < > < > < > < > <
e|-------------------------------------------------------------------------|
B|-------------------------------------------------------------------------|
D|--1---1-1-1-1-1-1-1-1-1-1-1-1-1-1----------------------------------------|
G|--2---2-2-2-2-2-2-2-2-2-2-2-2-2-2---2---2-2-2-2-2-2-2-2-2-2-2-2-2-2------|
A|--2---2-2-2-2-2-2-2-2-2-2-2-2-2-2---4---4-4-4-4-4-4-4-4-4-4-4-4-4-4------|
E|-------------------------------------------------------------------------|
        x x x x x x x x x x x x x x       x x x x x x x x x x x x x x
    me.  This night....               wild, so calm..


    >   > < > < > < > < > < > < > <   >   > < > < > <   > < > < > < > <
e|-------------------------------------------------------------------------|
B|-------------------------------------------------------------------------|
D|-------------------------------------------------------------------------|
G|--1---2-2-2-2-2-2-2-2-2-2-2-2-2-2---4---4-4-4-4-4-4---7-7-7-7-6-6-6-6----|
A|--0---0-0-0-0-0-0-0-0-0-0-0-0-0-0---2---2-2-2-2-2-2---5-5-5-5-5-5-5-5----|
E|------------------------------------------------------5-5-5-5-5-5-5-5----|
        x x x x x x x x x x x x x x       x x x x x x 
    dull. These hearts...             rush from         self con-
    >   > < > < > < > < > < > < > <   >   > < > < > < > < > < > < > <
e|-------------------------------------------------------------------------|
B|-------------------------------------------------------------------------|
D|--1---1-1-1-1-1-1-1-1-1-1-1-1-1-1----------------------------------------|
G|--2---2-2-2-2-2-2-2-2-2-2-2-2-2-2---2---2-2-2-2-2-2-2-2-2-2-2-2-2-2------|
A|--2---2-2-2-2-2-2-2-2-2-2-2-2-2-2---4---4-4-4-4-4-4-4-4-4-4-4-4-4-4------|
E|-------------------------------------------------------------------------|
        x x x x x x x x x x x x x x       x x x x x x x x x x x x x x
    -trol. Your legs...		      smooth as..

    >   > < > < > < > < > < > < > <   >
e|-------------------------------------------------------------------------|
B|-------------------------------------------------------------------------|
D|-------------------------------------------------------------------------|
G|--1---2-2-2-2-2-2-2-2-2-2-2-2-2-2---4------------------------------------|
A|--0---0-0-0-0-0-0-0-0-0-0-0-0-0-0---2------------------------------------|
E|-------------------------------------------------------------------------|
        x x x x x x x x x x x x x x
    mine. We're doing                 Fine. We're doing nothing at

Chorus
       > <  > < > > < > < >     >  > < > < > > < > 
e|-------------------------------------------------------------------------|
B|------------------------------4--4-4-4-4-4-4-4-4-------------------------|
D|-----1-1--1-1-1-1-1-1-1-1-----4--4-4-4-4-4-4-4-4-------------------------|
G|-----2-2--2-2-2-2-2-2-2-2-----6--6-6-6-6-6-6-6-6-------------------------|
A|-----2-2--2-2-2-2-2-2-2-2-----6--6-6-6-6-6-6-6-6-------------------------|
E|--0---------------------------4--4-4-4-4-4-4-4-4-------------------------|
    all. My hopes...            kill me...
   

      >  > < > < > > < >       >  > < > <      > < > < > < > < 
e|----0--0-0-0-0-0-0-0-0---------------------------------------------------|
B|----2--2-2-2-2-2-2-2-2-------4--4-4-4-4----------------------------------|
D|----1--1-1-1-1-1-1-1-1-------4--4-4-4-4----------------------------------|
G|----2--2-2-2-2-2-2-2-2-------6--6-6-6-6------7-7-7-7-6-6-6-6-------------|
A|----0--0-0-0-0-0-0-0-0-------6--6-6-6-6------4-4-4-4-4-4-4-4-------------|
E|-----------------------------4--4-4-4-4------5-5-5-5-5-5-5-5-------------|
      kill me...               happy...

       > <  > < > > < > < >     >  > < > < > > < > 
e|-------------------------------------------------------------------------|
B|------------------------------4--4-4-4-4-4-4-4-4-------------------------|
D|-----1-1--1-1-1-1-1-1-1-1-----4--4-4-4-4-4-4-4-4-------------------------|
G|-----2-2--2-2-2-2-2-2-2-2-----6--6-6-6-6-6-6-6-6-------------------------|
A|-----2-2--2-2-2-2-2-2-2-2-----6--6-6-6-6-6-6-6-6-------------------------|
E|--0---------------------------4--4-4-4-4-4-4-4-4-------------------------|
       My heart...              burst...

      >  > < > < > > < >       >  > < > <      > < > < > < > < 
e|----0--0-0-0-0-0-0-0-0---------------------------------------------------|
B|----2--2-2-2-2-2-2-2-2-------4--4-4-4-4----------------------------------|
D|----1--1-1-1-1-1-1-1-1-------4--4-4-4-4----------------------------------|
G|----2--2-2-2-2-2-2-2-2-------6--6-6-6-6------7-7-7-7-6-6-6-6-------------|
A|----0--0-0-0-0-0-0-0-0-------6--6-6-6-6------4-4-4-4-4-4-4-4-------------|
E|-----------------------------4--4-4-4-4------5-5-5-5-5-5-5-5-------------|
      bury...                  jewlery      whichever you pre-

Verse

    >   > < > < > < > < > < > < > <   >   > < > < > < > < > < > < > <
e|-------------------------------------------------------------------------|
B|-------------------------------------------------------------------------|
D|--1---1-1-1-1-1-1-1-1-1-1-1-1-1-1----------------------------------------|
G|--2---2-2-2-2-2-2-2-2-2-2-2-2-2-2---2---2-2-2-2-2-2-2-2-2-2-2-2-2-2------|
A|--2---2-2-2-2-2-2-2-2-2-2-2-2-2-2---4---4-4-4-4-4-4-4-4-4-4-4-4-4-4------|
E|-------------------------------------------------------------------------|
        x x x x x x x x x x x x x x       x x x x x x x x x x x x x x
    -fer. The words..                 busted...                    en-

    >   > < > < > < > < > < > < > <   >   > < > < > <   > < > < > < > <
e|-------------------------------------------------------------------------|
B|-------------------------------------------------------------------------|
D|-------------------------------------------------------------------------|
G|--1---2-2-2-2-2-2-2-2-2-2-2-2-2-2---4---4-4-4-4-4-4---7-7-7-7-6-6-6-6----|
A|--0---0-0-0-0-0-0-0-0-0-0-0-0-0-0---2---2-2-2-2-2-2---5-5-5-5-5-5-5-5----|
E|------------------------------------------------------5-5-5-5-5-5-5-5----|
        x x x x x x x x x x x x x x       x x x x x x
    -twined...                undis   covered

    >   > < > < > < > < > < > < > <   >   > < > < > < > < > < > < > <
e|-------------------------------------------------------------------------|
B|-------------------------------------------------------------------------|
D|--1---1-1-1-1-1-1-1-1-1-1-1-1-1-1----------------------------------------|
G|--2---2-2-2-2-2-2-2-2-2-2-2-2-2-2---2---2-2-2-2-2-2-2-2-2-2-2-2-2-2------|
A|--2---2-2-2-2-2-2-2-2-2-2-2-2-2-2---4---4-4-4-4-4-4-4-4-4-4-4-4-4-4------|
E|-------------------------------------------------------------------------|
        x x x x x x x x x x x x x x       x x x x x x x x x x x x x x
      Safe for...                     questions.

    >   > < > < > < > < > < > < > <   >   > < > < > <   > < > < > < > <
e|-------------------------------------------------------------------------|
B|-------------------------------------------------------------------------|
D|-------------------------------------------------------------------------|
G|--1---2-2-2-2-2-2-2-2-2-2-2-2-2-2---4---4-4-4-4-4-4---7-7-7-7-6-6-6-6----|
A|--0---0-0-0-0-0-0-0-0-0-0-0-0-0-0---2---2-2-2-2-2-2---5-5-5-5-5-5-5-5----|
E|------------------------------------------------------5-5-5-5-5-5-5-5----|
        x x x x x x x x x x x x x x       x x x x x x 
    get some.                         so dumb.

    >   > < > < > < > < > < > < > <   >   > < > < > < > < > < > < > <
e|-------------------------------------------------------------------------|
B|-------------------------------------------------------------------------|
D|--1---1-1-1-1-1-1-1-1-1-1-1-1-1-1----------------------------------------|
G|--2---2-2-2-2-2-2-2-2-2-2-2-2-2-2---2---2-2-2-2-2-2-2-2-2-2-2-2-2-2------|
A|--2---2-2-2-2-2-2-2-2-2-2-2-2-2-2---4---4-4-4-4-4-4-4-4-4-4-4-4-4-4------|
E|-------------------------------------------------------------------------|
        x x x x x x x x x x x x x x       x x x x x x x x x x x x x x
       Stay quiet...                  near. Stay...

    >   > < > < > < > < > < > < > <   >
e|-------------------------------------------------------------------------|
B|-------------------------------------------------------------------------|
D|------------------------------------------------------7-7-7-7-6-6-6-6----|
G|--1---------------------------------4#----------------5-5-5-5-5-5-5-5----|
A|--0---------------------------------2#----------------5-5-5-5-5-5-5-5----|
E|-------------------------------------------------------------------------|
    hear.                          ...get some.

Chorus

       > <  > < > > < > < >     >  > < > < > > < > 
e|-------------------------------------------------------------------------|
B|------------------------------4--4-4-4-4-4-4-4-4-------------------------|
D|-----1-1--1-1-1-1-1-1-1-1-----4--4-4-4-4-4-4-4-4-------------------------|
G|-----2-2--2-2-2-2-2-2-2-2-----6--6-6-6-6-6-6-6-6-------------------------|
A|-----2-2--2-2-2-2-2-2-2-2-----6--6-6-6-6-6-6-6-6-------------------------|
E|--0---------------------------4--4-4-4-4-4-4-4-4-------------------------|
    all. My hopes...            kill me...
   

      >  > < > < > > < >       >  > < > <      > < > < > < > < 
e|----0--0-0-0-0-0-0-0-0---------------------------------------------------|
B|----2--2-2-2-2-2-2-2-2-------4--4-4-4-4----------------------------------|
D|----1--1-1-1-1-1-1-1-1-------4--4-4-4-4----------------------------------|
G|----2--2-2-2-2-2-2-2-2-------6--6-6-6-6------7-7-7-7-6-6-6-6-------------|
A|----0--0-0-0-0-0-0-0-0-------6--6-6-6-6------4-4-4-4-4-4-4-4-------------|
E|-----------------------------4--4-4-4-4------5-5-5-5-5-5-5-5-------------|
      kill me...               happy...

       > <  > < > > < > < >     >  > < > < > > < > 
e|-------------------------------------------------------------------------|
B|------------------------------4--4-4-4-4-4-4-4-4-------------------------|
D|-----1-1--1-1-1-1-1-1-1-1-----4--4-4-4-4-4-4-4-4-------------------------|
G|-----2-2--2-2-2-2-2-2-2-2-----6--6-6-6-6-6-6-6-6-------------------------|
A|-----2-2--2-2-2-2-2-2-2-2-----6--6-6-6-6-6-6-6-6-------------------------|
E|--0---------------------------4--4-4-4-4-4-4-4-4-------------------------|
       My heart...              burst...

      >  > < > < > > < >       >  > < > <      > < > < > < > < 
e|----0--0-0-0-0-0-0-0-0---------------------------------------------------|
B|----2--2-2-2-2-2-2-2-2-------4--4-4-4-4----------------------------------|
D|----1--1-1-1-1-1-1-1-1-------4--4-4-4-4----------------------------------|
G|----2--2-2-2-2-2-2-2-2-------6--6-6-6-6------7-7-7-7-6-6-6-6-------------|
A|----0--0-0-0-0-0-0-0-0-------6--6-6-6-6------4-4-4-4-4-4-4-4-------------|
E|-----------------------------4--4-4-4-4------5-5-5-5-5-5-5-5-------------|
      bury...                  jewlery      whichever you pre-

        
Outro/Bridge thing

     > > > > > > > > <     >  >  >  >  >  >  >  >  <
e|---0-0-0-0-0-0-0-0-0-----0--0--0--0--0--0--0--0--0-----------------------|
B|---0-0-0-0-0-0-0-0-0-----0--0--0--0--0--0--0--0--0-----------------------|
D|---9-9-9-9-9-9-9-9-9-----13-13-13-13-13-13-13-13-13----------------------|
G|---9-9-9-9-9-9-9-9-9-----13-13-13-13-13-13-13-13-13----------------------|
A|---7-7-7-7-7-7-7-7-7-----12-12-12-12-12-12-12-12-12----------------------|
E|-------------------------------------------------------------------------|
      Hands down..         best day...

     > > > > > > > > <     > > > > > > > > <       >   [End on]
e|---0-0-0-0-0-0-0-0-0-------------------------|---0-----------------------|
B|---9-9-9-9-9-9-9-9-9-----7-7-7-7-7-7-7-7-7---|---0-----------------------|
D|---9-9-9-9-9-9-9-9-9-----8-8-8-8-8-8-8-8-8---|---9-----------------------|
G|---9-9-9-9-9-9-9-9-9-----9-9-9-9-9-9-9-9-9---|---9-----------------------|
A|---7-7-7-7-7-7-7-7-7-----9-9-9-9-9-9-9-9-9---|---7-----------------------|
E|-------------------------7-7-7-7-7-7-7-7-7---|---------------------------|
     ever remember.        Always remember...





Comments


Popular Dashboard Confessional tabs & chords
As Lovers Go 3 Chords
Best Deceptions Chords
The Brilliant Dance Chords
The Shade Of Poison Trees 2 Chords
Currents Tabs
Hold On Tabs
Saints And Sailors 1 Tabs
The Places You Have Come To Fear The Most 1 Tabs
Get Me Right Ukulele
Secrets In The Telling Ukulele


Song lyrics



↑ Back to top | Tablatures and chords are parodies/interpretations of the original songs. You may use it for private study, scholarship, research or language learning purposes only
© 2014 AZChords.com Contact us | Privacy policy | DMCA | Add/correct tabs | Request tabs | Top 50 tabs