» » »

Hands Down Tabs (ver.2)

Artists:  A B C D E F G H I J K L M N O P Q R S T U V W X Y Z # 

Hands Down Tabs (ver.2)

Dashboard Confessional
Rating:
0/5 (0 votes)

Hard to play? Try these video lessons and learn fast.
                ----------------------------------
Dashboard Confessional-Hands Down
Tuning-tune a half step down
----------------------------------

Intro
Eb|-------------------------------|
Bb|-------------------------------|
Gb|-------1---------1-2-----------|
Db|-----4---2-----4---------4/6---|
Ab|---2---------2---------2-------|
Eb|-0---------0---------0---------|

End of intro
Eb|--------------|
Bb|--------------|
Gb|--------------|
Db|-----4-1------|
Ab|---2-2-2------|
Eb|-0------------|


Verse
Eb|-0---0--0--0-------------|
Bb|-0---5--0--0-------------|
Gb|-1---6--6--8--7-7--------|
Db|-2---6--7--9--7-7--------|
Ab|-2---4--7--9--5-4--------|
Eb|-0------5--7-------------|

Palm mute verse


Chorus
Eb|-0------0-----0--0-----|
Bb|-0------0-----5--0-----|
Gb|-1---5--6--5--6--6-----|
Db|-2---6--7--6--6--7-----|
Ab|-2---6--7--6--4--7-----|
Eb|-0---4--5--4-----5-----|


2nd Chorus
Eb|-0--0--0--0--|
Bb|-5--0--0--0--|
Gb|-6--6--9--8--|
Db|-6--7--9--9--|
Ab|-4--7--7--9--|
Eb|----5--0--7--|

Order:
Intro 4x
end of intro
verse 3x
chorus 2x
verse 3x
chorus 2x
2nd chorus-Play til end.

I didn't put how many times you play each note so figure it out for yourself.
            
Hard to play? Try these video lessons and learn fast. | Correct




comments powered by Disqus
↑ Back to top | Tablatures and chords are parodies/interpretations of the original songs. You may use it for private study, scholarship, research or language learning purposes only