>
 >
For You To Notice

For You To Notice Guitar Tabs

Dashboard Confessional - For You To Notice chords, tabs, tablatures, lyrics

Guitar lessons | Add/correct | Request | Top 50 tabs Artists:  A B C D E F G H I J K L M N O P Q R S T U V W X Y Z 0-9

For You To Notice Guitar Tabs – Dashboard Confessional

CD, Sheet music, Poster

Do you like For You To Notice? Share with your friends now
TabsTabs v2Tabs v3Tabs v4
**First Guitar**
Intro/Verse
eb|----0---0----0----0---0---0---0---0--
Bb|----0---0----0----0---0---0---0---0--
Gb|--9---9---11---13---6---6---4---4----
Db|--9---9---11---13---6---6---4---4----
Ab|--7---7----9---11---4---4---2---2----
Eb|-------------------------------------


Pre-Chorus
eb|-----------------------------0----0-----0----0---0---0--
Bb|--0-----0-----0-----0--------0----0-----0----0---0---0--
Gb|--x-----x-----x-----x--------x----x--11---11---9---9----
Db|--9/11-11/13-13/14-14/16--16---16----11---11---9---9----
Ab|--7/9---9/11-11/12-12/14--14---14-----9----9---7---7----
Eb|--------------------------------------------------------


Bridge
eb|------0--------0--------------------------0---
Bb|(14)--0--(12)--0--(10)---(9/10--12)-----------( ) is 2nd guitar
Gb|--9------13--------11-------------------------part
Db|--9------13--------11----------------7-6------
Ab|--7------11---------9-------------------------
Eb|----------------------------------------------


Chorus
eb|--0-0-0-0-0-0--0--0-0-0-0-0-0-0--0--0--0--0--0--0--0--0--0-0-0-0-0-0-0-0-0--
Bb|--0-0-0-0-0-0--0--0-0-0-0-0-0-0--0--0--0--0--0--0--0--0--0-0-0-0-0-0-0-0-0--
Gb|--9-9-9-9-9-9-11-13-9-9-9-9-9-9-13-15-11-11-11-11-11-11-11-4-4-4-4-4-4-4-4--
Db|--9-9-9-9-9-9-11-13-9-9-9-9-9-9-13-15-11-11-11-11-11-11-11-4-4-4-4-4-4-4-4--
Ab|--7-7-7-7-7-7--9-11-7-7-7-7-7-7-11-13--9--9--9--9--9--9--9-2-2-2-2-2-2-2-2--
Eb|--0-0-0-0-0-0-------0-0-0-0-0-0---------------------------------------------


End on
eb|--0---
Bb|--0---
Gb|--9---
Db|--9---
Ab|--7---
Eb|--0---


            **Second Guitar**


Verse Pt. 1
eb|-----12--------14-------12--------14----------------
Bb|--9--------12--------9--------12--------------------
Gb|---------11-----------------11---------11\9--11/13--
Db|----------------------------------------------------
Ab|----------------------------------------------------
Eb|----------------------------------------------------


Verse Pt. 2
eb|------------------------------------------|----|
Bb|--17-17\12-12/14-14\9-9--9-9h10--7-----5--|-12-|Place this second
Gb|------------------------------------------|----|time instead of
Db|------------------------------------------|----|7 & 5
Ab|------------------------------------------|----|
Eb|------------------------------------------|----|


Pre-Chorus
eb|--12h14--12---|This part is played half way into pre-chorus
Bb|--------------|
Gb|--repeatedly--|look for end of this part in
Db|--------------|the first guitar Pre-Chorus
Ab|--------------|in parenthesis
Eb|--------------|


Chorus Pt. 1
eb|-----12-------14-------16-------14-------12--
Bb|--9-------12-------12-------12-------12------
Gb|---------------------------------------------
Db|---------------------------------------------
Ab|---------------------------------------------
Eb|---------------------------------------------


Chorus Pt. 2
eb|-----16----16----16----16----16----17----17----17----17----19---17--
Bb|--------------------------------------------------------------------
Gb|--16----16----16----16----16----16----16----16----16----16----------
Db|--------------------------------------------------------------------
Ab|--------------------------------------------------------------------
Eb|--------------------------------------------------------------------





Comments


Popular Dashboard Confessional tabs & chords
Carve Your Heart Out Yourself Bass Tabs
Vindicated 4 Chords
Belle Of The Boulevard 2 Tabs
If You Cant Let It Be Might As Well Make It Bleed Tabs
Jamie Tabs
Screaming Infidelities 2 Tabs
Several Ways To Die Trying Tabs
So Long So Long Tabs
The Places You Have Come To Fear The Most 4 Tabs
What I Wanted To Say Was Tabs


Song lyrics



↑ Back to top | Tablatures and chords are parodies/interpretations of the original songs. You may use it for private study, scholarship, research or language learning purposes only
© 2014 AZChords.com Contact us | Privacy policy | DMCA | Add/correct tabs | Request tabs | Top 50 tabs