» » »

Dashboard Confessional, Ender Will Save Us All Tabs (ver.2)

Artists:  A B C D E F G H I J K L M N O P Q R S T U V W X Y Z # 

Ender Will Save Us All Tabs (ver.2)

Dashboard Confessional Tabs
Rating:
0/5 (0 votes)
Ender Will Save Us All lessons Tabs too difficult? Try these video lessons and learn fast
                John Luekemeyer

Tuning: Db Ab Db Gb Bb eb

Intro 
eb:|------(5)----| 
Bb:|------(5)-10-| 
Gb:|-7--7--7---9-| 
Db:|-7--5--7---0-| 
Ab:|-5--3--5---0-| 
Db:|-0--x--5---0-| 

(Parenthesis for the Swiss Army Romance Version) 

Verse 2x - "It's just like you.." 
eb:|------(5)----| 
Bb:|------(5)-10-| 
Gb:|-7--7--7---9-| 
Db:|-7--5--7---0-| 
Ab:|-5--3--5---0-| 
Db:|-0--x--5---0-| 

Prechorus - "I wanna give you" 
eb:|----5-----2-----4-----2-| 
Bb:|----5-----3-----5-----3-| 
Gb:|-7--6--7--4--7--6--7--4-| 
Db:|-7--7--5--4--7--7--5--4-| 
Ab:|-5--5--3--2--5--4--3--2-| 
Eb:|-0-----0--x--0--x--0--x-| 

Chorus 1 - "It's hard to explain" 
eb:|-----4-----2------4-----2-| 
Bb:|-----5-----3------5-----3-| 
Gb:|-77--6--7--4--77--6--7--4-| 
Db:|-77--7--5--4--77--7--5--4-| 
Ab:|-55--4--3--2--55--4--3--2-| 
Eb:|-00-----0--x--00--x--0--x-| 

Chorus 2 - "It's gotta be something" 
eb:|----4-----2-----4-----2-| 
Bb:|----5-----3-----5-----3-| 
Gb:|-7--6--7--4--7--6--7--4-| 
Db:|-7--7--5--4--7--7--5--4-| 
Ab:|-5--4--3--2--5--4--3--2-| 
Eb:|-0--x--0--x--0--x--0--x-| 

Interlude - "The harder I push" 
eb:|---------------| 
Bb:|---------------| 
Gb:|-7--4-----7----| 
Db:|-7--4--7--7--8-| 
Ab:|-5--2--5--5--5-| 
Eb:|-0--0--5-----5-| 

Outro Chorus - "Wrong..." 
eb:|---------------------------------| 
Bb:|---------------------------------| 
Gb:|---------------------------------| 
Db:|-4-4-4-4-4-5-4-0-4-5-4-0-3-4-5-0-| 
Ab:|-5-5-5-5-5-5-5-0-2-2-2-0-1-1-0-0-| 
Eb:|-0-0-0-0-0-0-0-0-x-x-x-0-x-x-x-0-| 

eb:|-------------------------------| 
Bb:|-------------------------------| 
Gb:|-------------------------------| 
Db:|-44-44-4h5p4p0-4-5-4-0-3-4-5-0-| 
Ab:|-55-55---------2-2-2-0-1-1-0-0-| 
Eb:|-00-00---------x-x-x-0-x-x-x-0-| 

End On 
eb:|---| 
Bb:|---| 
Gb:|-7-| 
Db:|-7-| 
Ab:|-5-| 
Eb:|-0-|
            
Submit corrections

comments powered by Disqus
↑ Back to top | Dashboard Confessional Tabs for Ender Will Save Us All. Lyrics for acoustic guitar and electric guitar. Tablatures and chords are parodies/interpretations of the original songs. You may use it for private study, scholarship, research or language learning purposes only