>
 >
Drowning

Drowning Guitar Tabs

Dashboard Confessional - Drowning chords, tabs, tablatures, lyrics

Guitar lessons | Add/correct | Request | Top 50 tabs Artists:  A B C D E F G H I J K L M N O P Q R S T U V W X Y Z 0-9

Drowning Guitar Tabs – Dashboard Confessional

CD, Sheet music, Poster

Do you like Drowning? Share with your friends now
ChordsTabsUkulele
Drowning by Dashboard Confessional 

Standard Tuning

Intro x10       
     F     G      Am        
e----x------x-------0------- 
B----1------x-------1------- 
G----x------0-------2------- 
D----3------0-------2------- 
A----3------2-------0------- 
E----1------3-------x------- 

Verse (Part 1) x2
e----------------------------------------------
B----------------------------------------------
G----------------------------------------------
D---------------------------------------------- 
A---5----5----2----5----5----3----2------------  
E---3----2----0----3----2----1----0------------

Verse (Part 2) x8
     C      F
e----0------1----------------
B----1------1----------------
G----0------2----------------
D----2------3----------------
A----3------3----------------
E----x------1----------------

Chorus x8 

     G      Am     F        
e----x-------0------x--- 
B----x-------1------1--- 
G----0-------2------x--- 
D----0-------2------3--- 
A----2-------0------3--- 
E----3-------x------1--- 

Verse (Part 1)
Verse (Part 2)

Chorus (picking)
     G       Am     F           G      Am
e---------------------0------/----------------
B-------0-----1---------1----/-----0-----1----
G------(0)---(2)-----------2-/-----------2---- End
D-----------2-------3--------/---------2------
A-----2---0-------3----------/---2---0--------  
E---3-----------1------------/





Comments


Popular Dashboard Confessional tabs & chords
Remember To Breath Bass Tabs
I Do Chords
Age Six Racer Tabs
As Lovers Go 2 Tabs
Get Me Right Tabs
No News Is Bad News Tabs
Several Ways To Die Trying 5 Tabs
Unnoticed Tabs
As Lovers Go Ukulele
So Long So Long Ukulele


Song lyrics



↑ Back to top | Tablatures and chords are parodies/interpretations of the original songs. You may use it for private study, scholarship, research or language learning purposes only
© 2014 AZChords.com Contact us | Privacy policy | DMCA | Add/correct tabs | Request tabs | Top 50 tabs