» » »

Dashboard Confessional, Carry This Picture Tabs (ver.2)

Artists:  A B C D E F G H I J K L M N O P Q R S T U V W X Y Z # 

Carry This Picture Tabs (ver.2)

Dashboard Confessional Tabs
 Rating:
4/5 (4 votes)
Carry This Picture lessons Tabs too difficult? Try these video lessons and learn fast
                (Correct)
enjoy.. this is a great dashboard song tuned  half step down.. like most

Intro:  ---------------------
------------------------------
----------------2p-0--------
---0---2h--3-----------4---
------------------------------
------------------------------


--------------------------------------
--------------------------------------
--0---x----0---x----0----x----0----
--0---x----2---x----5----x----4----
--2---x----3---x----4----x----5----
--3---x----3---x----5----x----5----

strummin pattern:
     down.. down up down up... down... down up down up



chorus:  this was wrong in the other tabs.. its like this.. 

--x----------x----------x------------------------------------------0--
--0---x------0----x----0------x----x-----------x-----------------3--
--0---x------2----x----0------x----x--------0--x---0------------0--
--0---x------0----x----2----- x----x--------3--x---2-slide to>4--
--2---x------2----x----2------x----x--------2--x---3------------5--
--3---x------0----x----0---0-x--1-x-2-----3---x---3------------5--

end on ... 
-----------------------------------------3---
--------------------0-------------------0----
---------------0--------0--------------0-----
----------3-----------------3----------0-----
------2-------------------------2------2-----
--3------------------------------------3------
            
Submit corrections

comments powered by Disqus
↑ Back to top | Dashboard Confessional Tabs for Carry This Picture. Lyrics for acoustic guitar and electric guitar. Tablatures and chords are parodies/interpretations of the original songs. You may use it for private study, scholarship, research or language learning purposes only