>
 >
Carry This Picture 1

Carry This Picture 1 Guitar Tabs

Dashboard Confessional - Carry This Picture 1 chords, tabs, tablatures, lyrics

Guitar lessons | Add/correct | Request | Top 50 tabs Artists:  A B C D E F G H I J K L M N O P Q R S T U V W X Y Z 0-9

Carry This Picture 1 Guitar Tabs – Dashboard Confessional

CD, Sheet music, Poster

Do you like Carry This Picture 1? Share with your friends now
ChordsChords v2Chords v3TabsTabs v2Ukulele
 Intro
  Q=163
 4/4
  Gtr I
|----------------|------------------|--------------------|------------------|
|----------------|------------------|--------------------|------------------|
|----------------|------------------|--------------------|------------------|
|-------6-4-3-4--|------------------|------------1-(1)-1-|------1-(1)-------|
|-4-6-8----------|---1-(1)-4------1-|-(1)---2----2-(2)-2-|------2-(2)-4-3---|
|----------------|-2-2-(2)-2-2--2-2-|-(2)-2-2--2-2-(2)-2-|-2--2-2-(2)-2-4---|


|------------------|--------------------|-----------------|------------------|
|------------------|--------------------|-----------------|------------------|
|------------------|--------------------|-----------------|------------------|
|---4-(4)-4------4-|-(4)--------3-(3)-3-|------3-(3)------|---2-(2)-2------2-|
|---3-(3)-3------3-|-(3)-3-4----4-(4)-4-|------4-(4)-4-1--|---1-(1)-1------1-|
|-4-4-(4)-4-4--4-4-|-(4)-4-4--4-4-(4)-4-|-4--4-4-(4)-4-2--|-2-2-(2)-2-2--2-2-|


|--------------------|-----------------|------------------|--------------------|
|--------------------|-----------------|------------------|--------------------|
|--------------------|-----------------|------------------|--------------------|
|-(2)--------1-(1)-1-|------1-(1)------|---4-(4)-4------4-|-(4)--------3-(3)-3-|
|-(1)-1-2----2-(2)-2-|------2-(2)-4-3--|---3-(3)-3------3-|-(3)-3-4----4-(4)-4-|
|-(2)-2-2--2-2-(2)-2-|-2--2-2-(2)-2-4--|-4-4-(4)-4-4--4-4-|-(4)-4-4--4-4-(4)-4-|


|-----------------|------------------|--------------------|-----------------|
|-----------------|------------------|--------------------|-----------------|
|-----------------|------------------|--------------------|-----------------|
|------3-(3)------|------------------|------------1-(1)-1-|------1-(1)------|
|------4-(4)-4-1--|---1-(1)-4------1-|-(1)---2----2-(2)-2-|------2-(2)-4-3--|
|-4--4-4-(4)-4-2--|-2-2-(2)-2-2--2-2-|-(2)-2-2--2-2-(2)-2-|-2--2-2-(2)-2-4--|


|------------------|--------------------|-----------------|------------------|
|------------------|--------------------|-----------------|------------------|
|------------------|--------------------|-----------------|------------------|
|---4-(4)-4------4-|-(4)--------3-(3)-3-|------3-(3)------|---2-(2)-2------2-|
|---3-(3)-3------3-|-(3)-3-4----4-(4)-4-|------4-(4)-4-1--|---1-(1)-1------1-|
|-4-4-(4)-4-4--4-4-|-(4)-4-4--4-4-(4)-4-|-4--4-4-(4)-4-2--|-2-2-(2)-2-2--2-2-|


|--------------------|-----------------|------------------|--------------------|
|--------------------|-----------------|------------------|--------------------|
|--------------------|-----------------|------------------|--------------------|
|-(2)--------1-(1)-1-|------1-(1)------|---4-(4)-4------4-|-(4)--------3-(3)-3-|
|-(1)-1-2----2-(2)-2-|------2-(2)-4-3--|---3-(3)-3------3-|-(3)-3-4----4-(4)-4-|
|-(2)-2-2--2-2-(2)-2-|-2--2-2-(2)-2-4--|-4-4-(4)-4-4--4-4-|-(4)-4-4--4-4-(4)-4-|


|-----------------|------------------|--------------------|-----------------|
|-----------------|------------------|--------------------|-----------------|
|-----------------|------------------|--------------------|-----------------|
|------3-(3)------|------------------|------------1-(1)-1-|------1-(1)------|
|------4-(4)-4-1--|---1-(1)-4------1-|-(1)---2----2-(2)-2-|------2-(2)-4-3--|
|-4--4-4-(4)-4-2--|-2-2-(2)-2-2--2-2-|-(2)-2-2--2-2-(2)-2-|-2--2-2-(2)-2-4--|


|------------------|--------------------|-----------------|------------------|
|------------------|--------------------|-----------------|------------------|
|------------------|--------------------|-----------------|------------------|
|---4-(4)-4------4-|-(4)--------3-(3)-3-|------3-(3)------|---2-(2)-2------2-|
|---3-(3)-3------3-|-(3)-3-4----4-(4)-4-|------4-(4)-4-1--|---1-(1)-1------1-|
|-4-4-(4)-4-4--4-4-|-(4)-4-4--4-4-(4)-4-|-4--4-4-(4)-4-2--|-2-2-(2)-2-2--2-2-|


|--------------------|-----------------|------------------|--------------------|
|--------------------|-----------------|------------------|--------------------|
|--------------------|-----------------|------------------|--------------------|
|-(2)--------1-(1)-1-|------1-(1)------|---4-(4)-4------4-|-(4)--------3-(3)-3-|
|-(1)-1-2----2-(2)-2-|------2-(2)-4-3--|---3-(3)-3------3-|-(3)-3-4----4-(4)-4-|
|-(2)-2-2--2-2-(2)-2-|-2--2-2-(2)-2-4--|-4-4-(4)-4-4--4-4-|-(4)-4-4--4-4-(4)-4-|


                   Verse
|-----------------|----------------|----------------|---------------|
|-----------------|----------------|-----4--4-4-4-4-|-4--4-4-4-4----|
|-----------------|----------------|-----3--3-3-3-3-|-3--3-3-3-3----|
|------3-(3)------|----------------|-----3--3-3-3-3-|-3--3-3-3-3-4--|
|------4-(4)-4-1--|-1-1-1-1-1--1-1-|-1-1-5--5-5-5-5-|-5--5-5-5-5-6--|
|-4--4-4-(4)-4-2--|-2-2-2-2-2--2-2-|-2-2------------|---------------|


|---------------|---------------|---------------|----------------|
|---------------|---------------|------------4--|-4-4-4-4-4--4-4-|
|---------------|---------------|------------3--|-3-3-3-3-3--3-3-|
|-4-4-4-4-4--6--|-8--6--6-6-6-6-|-6--6-6-6-6-4--|-4-4-4-4-4--4-4-|
|-6-6-6-6-6--8--|-9--7--7-7-7-7-|-7--7-7-7-7-6--|-6-6-6-6-6--6-6-|
|---------------|----7--7-7-7-7-|-7--7-7-7-7-7--|-7-7-7-7-7--7-7-|


                               Chorus
|---------------|-------------|------------------|--------------------|
|-4-4-----------|-------------|------------------|--------------------|
|-3-3-----------|-------------|------------------|--------------------|
|-4-4-3--(3)----|-(3)------4--|------------------|------------1-(1)-1-|
|-6-6-4--(4)----|-(4)---------|---1-(1)-4------1-|-(1)---2----2-(2)-2-|
|-7-7-4--(4)----|-(4)---------|-2-2-(2)-2-2--2-2-|-(2)-2-2--2-2-(2)-2-|


|-----------------|------------------|--------------------|-----------------|
|-----------------|------------------|--------------------|-----------------|
|-----------------|------------------|--------------------|-----------------|
|------1-(1)------|---4-(4)-4------4-|-(4)--------3-(3)-3-|------3-(3)------|
|------2-(2)-4-3--|---3-(3)-3------3-|-(3)-3-4----4-(4)-4-|------4-(4)-4-1--|
|-2--2-2-(2)-2-4--|-4-4-(4)-4-4--4-4-|-(4)-4-4--4-4-(4)-4-|-4--4-4-(4)-4-2--|


|------------------|--------------------|-----------------|------------------|
|------------------|--------------------|-----------------|------------------|
|------------------|--------------------|-----------------|------------------|
|---2-(2)-2------2-|-(2)--------1-(1)-1-|------1-(1)------|---4-(4)-4------4-|
|---1-(1)-1------1-|-(1)-1-2----2-(2)-2-|------2-(2)-4-3--|---3-(3)-3------3-|
|-2-2-(2)-2-2--2-2-|-(2)-2-2--2-2-(2)-2-|-2--2-2-(2)-2-4--|-4-4-(4)-4-4--4-4-|


|--------------------|-----------------|------------------|--------------------|
|--------------------|-----------------|------------------|--------------------|
|--------------------|-----------------|------------------|--------------------|
|-(4)--------3-(3)-3-|------3-(3)------|------------------|------------1-(1)-1-|
|-(3)-3-4----4-(4)-4-|------4-(4)-4-1--|---1-(1)-4------1-|-(1)---2----2-(2)-2-|
|-(4)-4-4--4-4-(4)-4-|-4--4-4-(4)-4-2--|-2-2-(2)-2-2--2-2-|-(2)-2-2--2-2-(2)-2-|


|-----------------|------------------|--------------------|-----------------|
|-----------------|------------------|--------------------|-----------------|
|-----------------|------------------|--------------------|-----------------|
|------1-(1)------|---4-(4)-4------4-|-(4)--------3-(3)-3-|------3-(3)------|
|------2-(2)-4-3--|---3-(3)-3------3-|-(3)-3-4----4-(4)-4-|------4-(4)-4-1--|
|-2--2-2-(2)-2-4--|-4-4-(4)-4-4--4-4-|-(4)-4-4--4-4-(4)-4-|-4--4-4-(4)-4-2--|


|------------------|--------------------|-----------------|------------------|
|------------------|--------------------|-----------------|------------------|
|------------------|--------------------|-----------------|------------------|
|---2-(2)-2------2-|-(2)--------1-(1)-1-|------1-(1)------|---4-(4)-4------4-|
|---1-(1)-1------1-|-(1)-1-2----2-(2)-2-|------2-(2)-4-3--|---3-(3)-3------3-|
|-2-2-(2)-2-2--2-2-|-(2)-2-2--2-2-(2)-2-|-2--2-2-(2)-2-4--|-4-4-(4)-4-4--4-4-|


|--------------------|-----------------|------------------|--------------------|
|--------------------|-----------------|------------------|--------------------|
|--------------------|-----------------|------------------|--------------------|
|-(4)--------3-(3)-3-|------3-(3)------|------------------|------------1-(1)-1-|
|-(3)-3-4----4-(4)-4-|------4-(4)-4-1--|---1-(1)-4------1-|-(1)---2----2-(2)-2-|
|-(4)-4-4--4-4-(4)-4-|-4--4-4-(4)-4-2--|-2-2-(2)-2-2--2-2-|-(2)-2-2--2-2-(2)-2-|


|-----------------|------------------|--------------------|-----------------|
|-----------------|------------------|--------------------|-----------------|
|-----------------|------------------|--------------------|-----------------|
|------1-(1)------|---4-(4)-4------4-|-(4)--------3-(3)-3-|------3-(3)------|
|------2-(2)-4-3--|---3-(3)-3------3-|-(3)-3-4----4-(4)-4-|------4-(4)-4-1--|
|-2--2-2-(2)-2-4--|-4-4-(4)-4-4--4-4-|-(4)-4-4--4-4-(4)-4-|-4--4-4-(4)-4-2--|


|------------------|--------------------|-----------------|------------------|
|------------------|--------------------|-----------------|------------------|
|------------------|--------------------|-----------------|------------------|
|---2-(2)-2------2-|-(2)--------1-(1)-1-|------1-(1)------|---4-(4)-4------4-|
|---1-(1)-1------1-|-(1)-1-2----2-(2)-2-|------2-(2)-4-3--|---3-(3)-3------3-|
|-2-2-(2)-2-2--2-2-|-(2)-2-2--2-2-(2)-2-|-2--2-2-(2)-2-4--|-4-4-(4)-4-4--4-4-|


                                        Breakdown
|--------------------|-----------------|----------------|----------------|
|--------------------|-----------------|----------------|-----4--4-4-4-4-|
|--------------------|-----------------|----------------|-----3--3-3-3-3-|
|-(4)--------3-(3)-3-|------3-(3)------|----------------|-----3--3-3-3-3-|
|-(3)-3-4----4-(4)-4-|------4-(4)-4-1--|-1-1-1-1-1--1-1-|-1-1-5--5-5-5-5-|
|-(4)-4-4--4-4-(4)-4-|-4--4-4-(4)-4-2--|-2-2-2-2-2--2-2-|-2-2------------|


|---------------|---------------|---------------|---------------|
|-4--4-4-4-4----|---------------|---------------|------------4--|
|-3--3-3-3-3----|---------------|---------------|------------3--|
|-3--3-3-3-3-4--|-4-4-4-4-4--6--|-8--6--6-6-6-6-|-6--6-6-6-6-4--|
|-5--5-5-5-5-6--|-6-6-6-6-6--8--|-9--7--7-7-7-7-|-7--7-7-7-7-6--|
|---------------|---------------|----7--7-7-7-7-|-7--7-7-7-7-7--|


                                                Outro
|----------------|---------------|-------------|----------------|
|-4-4-4-4-4--4-4-|-4-4-----------|-------------|----------------|
|-3-3-3-3-3--3-3-|-3-3-----------|-------------|----------------|
|-4-4-4-4-4--4-4-|-4-4-3--(3)----|-(3)---------|----------------|
|-6-6-6-6-6--6-6-|-6-6-4--(4)----|-(4)------1--|-1-1-1-1-1--1-1-|
|-7-7-7-7-7--7-7-|-7-7-4--(4)----|-(4)------2--|-2-2-2-2-2--2-2-|


|----------------|---------------|---------------|---------------|
|-----4--4-4-4-4-|-4--4-4-4-4----|---------------|---------------|
|-----3--3-3-3-3-|-3--3-3-3-3----|---------------|---------------|
|-----3--3-3-3-3-|-3--3-3-3-3-4--|-4-4-4-4-4--6--|-8--6--6-6-6-6-|
|-1-1-5--5-5-5-5-|-5--5-5-5-5-6--|-6-6-6-6-6--8--|-9--7--7-7-7-7-|
|-2-2------------|---------------|---------------|----7--7-7-7-7-|


|---------------|----------------|---------------|-------------|
|------------4--|-4-4-4-4-4--4-4-|-4-4-----------|-------------|
|------------3--|-3-3-3-3-3--3-3-|-3-3-----------|-------------|
|-6--6-6-6-6-4--|-4-4-4-4-4--4-4-|-4-4-3--(3)----|-(3)---------|
|-7--7-7-7-7-6--|-6-6-6-6-6--6-6-|-6-6-4--(4)----|-(4)------1--|
|-7--7-7-7-7-7--|-7-7-7-7-7--7-7-|-7-7-4--(4)----|-(4)------2--|


 Out-Chorus
|------------------|--------------------|-----------------|------------------|
|------------------|--------------------|-----------------|------------------|
|------------------|--------------------|-----------------|------------------|
|------------------|------------1-(1)-1-|------1-(1)------|---4-(4)-4------4-|
|---1-(1)-4------1-|-(1)---2----2-(2)-2-|------2-(2)-4-3--|---3-(3)-3------3-|
|-2-2-(2)-2-2--2-2-|-(2)-2-2--2-2-(2)-2-|-2--2-2-(2)-2-4--|-4-4-(4)-4-4--4-4-|


|--------------------|-----------------|------------------|--------------------|
|--------------------|-----------------|------------------|--------------------|
|--------------------|-----------------|------------------|--------------------|
|-(4)--------3-(3)-3-|------3-(3)------|---2-(2)-2------2-|-(2)--------1-(1)-1-|
|-(3)-3-4----4-(4)-4-|------4-(4)-4-1--|---1-(1)-1------1-|-(1)-1-2----2-(2)-2-|
|-(4)-4-4--4-4-(4)-4-|-4--4-4-(4)-4-2--|-2-2-(2)-2-2--2-2-|-(2)-2-2--2-2-(2)-2-|


                                                                       Q=75
|-----------------|------------------|--------------------|------------------|
|-----------------|------------------|--------------------|------------------|
|-----------------|------------------|--------------------|------------------|
|------1-(1)------|---4-(4)-4------4-|-(4)--------3-(3)-3-|------3-(3)-------|
|------2-(2)-4-3--|---3-(3)-3------3-|-(3)-3-4----4-(4)-4-|------4-(4)-4---1-|
|-2--2-2-(2)-2-4--|-4-4-(4)-4-4--4-4-|-(4)-4-4--4-4-(4)-4-|-4--4-4-(4)-4-2---|


|-----------------^2---|-^(2)----*|
|-----------------^2---|-^(2)----*|
|----------------------|---------*|
|---3-4-3---------^4---|-^(4)----*|
|-4-------4-------^1---|-^(1)----*|
|-----------6-(6)-^2---|-^(2)----*|


Tablature Legend
----------------
 h   - hammer-on
 p   - pull-off
 b   - bend
 pb  - pre-bend
 r   - bend release (if no number after the r, then release immediately)
 /\  - slide into or out of (from/to "nowhere")
 s   - legato slide
 S   - shift slide
  - natural harmonic
[n]  - artificial harmonic
n(n) - tapped harmonic
 ~   - vibrato
 tr  - trill
 T   - tap
 TP  - trem. picking
 PM  - palm muting
\n/  - tremolo bar dip; n = amount to dip
 \n  - tremolo bar down
 n/  - tremolo bar up
/n\  - tremolo bar inverted dip
 =   - hold bend; also acts as connecting device for hammers/pulls
 <>  - volume swell (louder/softer)
 x   - on rhythm slash represents muted slash
 o   - on rhythm slash represents single note slash

Misc Legend
-----------
 |  - bar
||  - double bar
||o - repeat start
o|| - repeat end
*|  - double bar (ending)
 :  - bar (freetime)
 $  - Segno
 &  - Coda
Tempo markers -  = BPM(8/16=s8/s16), where s8 = swing 8ths, s16 = swing 16ths





Comments


Popular Dashboard Confessional tabs & chords
Even Now Chords
Age Six Racer 2 Tabs
Dont Wait 1 Tabs
Hands Down 8 Tabs
Jamie 2 Tabs
Remember To Breathe 2 Tabs
Rooftop And Invitations Intro Tabs
The Places You Have Come To Fear The Mos Tabs
Water And Bridges Tabs
Even Now 2 Ukulele


Song lyrics



↑ Back to top | Tablatures and chords are parodies/interpretations of the original songs. You may use it for private study, scholarship, research or language learning purposes only
© 2014 AZChords.com Contact us | Privacy policy | DMCA | Add/correct tabs | Request tabs | Top 50 tabs