» » »

Dashboard Confessional, Best Deceptions Chords (ver.1)

Artists:  A B C D E F G H I J K L M N O P Q R S T U V W X Y Z # 

Best Deceptions Chords (ver.1)

Dashboard Confessional Tabs
 Rating:
4/5 (4 votes)
Best Deceptions lessons Tabs too difficult? Try these video lessons and learn fast
1
                (Correct)
Tuning: DbAbDbFDbDb (open Db)

Notes: The emo girlies love to sing along to this one



[Intro]
 
Db-|----------|---------|---------|----------| 
Db-|----------|---------|---------|----------| 
F--|------3-0-|-----3-0-|-----3-0-|-1-0------| 
Db-|----------|---0-----|---0-----|-----2/4--| 
Ab-|----0-----|-4-------|-2-------|----------| 
Db-|--0-------|---------|---------|----------| 


[Verse] 

Db-|--0-0-0-0-|-0-0-0-0-|-0-0-0-0-|-0-0-0-0--| 
Db-|--0-0-0-0-|-0-0-0-0-|-0-0-0-0-|-0-0-0-0--| 
F--|--0-0-0-0-|-0-0-0-0-|-0-0-3-0-|-1-0-0-0--| 
Db-|--0-0-0-0-|-0-0-0-0-|-0-0-0-0-|-0-0-2/4--| 
Ab-|--0-0-0-0-|-4-4-4-4-|-2-2-2-2-|-0-0-0-0--| 
Db-|--0-0-0-0-|-0-0-0-0-|-0-0-0-0-|-0-0-0-0--| 


[Chorus] 

Db-|--x-x-x-x-|-x-x-x-x-|-0-0-0-0-|-0-0-0-0--| 
Db-|--x-x-x-x-|-x-x-x-x-|-0-0-0-0-|-0-0-0-0--| 
F--|--x-x-x-x-|-x-x-x-x-|-0-0-0-0-|-0-0-0-0--| 
Db-|--0-0-0-0-|-0-0-0-0-|-0-0-0-0-|-0-0-0-0--| 
Ab-|--0-0-0-0-|-0-0-0-0-|-7-7-7-7-|-5-5-5-5--| 
Db-|--0-0-0-0-|-0-0-0-0-|-7-7-7-7-|-5-5-5-5--| 


Db-|--(12)--| 
Db-|--(12)--| 
F--|--(12)--| 
Db-|--(12)--| 
Ab-|--(12)--| 
Db-|--------| 

Db-|--x-x-x-x-|-x-x-x-x-|-0-0-0-0-|-0-0-0-0--| 
Db-|--x-x-x-x-|-x-x-x-x-|-0-0-0-0-|-0-0-0-0--| 
F--|--x-x-x-x-|-x-x-x-x-|-0-0-0-0-|-0-0-0-0--| 
Db-|--0-0-0-0-|-0-0-0-0-|-0-0-0-0-|-0-0-0-0--| 
Ab-|--0-0-0-0-|-0-0-0-0-|-7-7-7-7-|-5-5-5-5--| 
Db-|--0-0-0-0-|-0-0-0-0-|-7-7-7-7-|-5-5-5-5--| 


[Outro]

Db-|--0----0----7----0----7--| 
Db-|--0----0----0----7----7--| 
F--|--12---12---8----8----7--| 
Db-|--12---11---9----5----7--| 
Ab-|--0----0----0----0----0--| 
Db-|--0----0----0----0----0--| 

[End]

Db-|--(12)--| 
Db-|--(12)--| 
F--|--(12)--| 
Db-|--(12)--| 
Ab-|--(12)--| 
Db-|--------|
            
Submit corrections

comments powered by Disqus
↑ Back to top | Dashboard Confessional Chords for Best Deceptions. Lyrics for acoustic guitar and electric guitar. 1 Tablatures and chords are parodies/interpretations of the original songs. You may use it for private study, scholarship, research or language learning purposes only