» » »

Dashboard Confessional, Again I Go Unnoticed Tabs (ver.2)

Artists:  A B C D E F G H I J K L M N O P Q R S T U V W X Y Z # 

Again I Go Unnoticed Tabs (ver.2)

Dashboard Confessional Tabs
Rating:
3/5 (9 votes)
Again I Go Unnoticed lessons Tabs too difficult? Try these video lessons and learn fast
                Timing:  1 +a2 +a3 +a4
Tuning:
     e string: down 1.5 steps to d flat
     B string: up 1.5 steps to d flat
     G string: down 3 steps to D flat
     D string: down .5 step to D flat
     A string: down .5 step to A flat
     E string: down 1.5 steps to D flat

 *the high e string and the B sting have the same
    tone, just as the G and the D sting, also*

~ = let note ring
( ) = play note only once

  -------------------------------------------------------
**Capo on the 2nd fret. The tabs are relative to the capo**
  -------------------------------------------------------


      So quiet, another wasted night, the televison steals a conversation
db|-0---------------------------0--------------------0------------------------|
db|-0---------------------------0--------------------0------------------------|
Db|-0---------------------------0--------------------0------------------------|
Db|-0---------------------------4--------------------2------------------------|
Ab|-0---------------------------2--------------------0------------------------|
Db|-0---------------------------0--------------------0------------------------|

      Exhale, another wasted breath, again it goes unnoticed
db|-0------------------------0-----------------------0------------------------|
db|-0------------------------0-----------------------0------------------------|
Db|-0------------------------0-----------------------0------------------------|
Db|-0------------------------4-----------------------2------------------------|
Ab|-0------------------------2-----------------------0------------------------|
Db|-0------------------------0-----------------------0------------------------|

      Please tell me you're just feeling tired, cuz if its more than that I
db|-0----------------0--------------------0----------------0------------------|
db|-0----------------0--------------------0----------------0------------------|
Db|-0----------------0--------------------0----------------0------------------|
Db|-7----------------2--------------------4----------------0------------------|
Ab|-5----------------0--------------------2----------------5------------------|
Db|-0----------------0--------------------0----------------5------------------|

      fear that I might break. Out of touch, out of time.
db|----------------------0-------------0-----------0--------0-----------------|
db|----------------------0-------------0-----------0--------0-----------------|
Db|----------------------0-------------0-----------0--------0-----------------|
Db|----------------------7-------------2-----------4--------0-----------------|
Ab|----------------------5-------------0-----------2--------5-----------------|
Db|----------------------0-------------0-----------0--------5-----------------|

      Please send me anything but signals that are mixed because I can't
db|-0----------------0--------------------------0----------------0------------|
db|-0----------------0--------------------------0----------------0------------|
Db|-0----------------0--------------------------0----------------0------------|
Db|-7----------------2--------------------------4----------------0------------|
Ab|-5----------------0--------------------------2----------------5------------|
Db|-0----------------0--------------------------0----------------5------------|

      read your rolling eyes.  Out of touch, are we out of time? 
db|----------------------0------------0------------------0--------0-----------|
db|----------------------0------------0------------------0--------0-----------|
Db|----------------------0------------0------------------0--------0-----------|
Db|----------------------7------------2------------------4--------0-----------|
Ab|----------------------5------------0------------------2--------5-----------|
Db|----------------------0------------0------------------0--------5-----------|

      Close lipped, another goodnight kiss is robbed from its passion.
db|-0----------------------------------0----------------------0---------------|
db|-0----------------------------------0----------------------0---------------|
Db|-0----------------------------------0----------------------0---------------|
Db|-0----------------------------------4----------------------2---------------|
Ab|-0----------------------------------2----------------------0---------------|
Db|-0----------------------------------0----------------------0---------------|

      Your grip, another time, is slack, it leaves me feeling empty.
db|-0-------------------------------0--------------------------0--------------|
db|-0-------------------------------0--------------------------0--------------|
Db|-0-------------------------------0--------------------------0--------------|
Db|-0-------------------------------4--------------------------2--------------|
Ab|-0-------------------------------2--------------------------0--------------|
Db|-0-------------------------------0--------------------------0--------------|

      Please tell me you're just feeling tired, cuz if its more than that I
db|-0----------------0--------------------0----------------0------------------|
db|-0----------------0--------------------0----------------0------------------|
Db|-0----------------0--------------------0----------------0------------------|
Db|-7----------------2--------------------4----------------0------------------|
Ab|-5----------------0--------------------2----------------5------------------|
Db|-0----------------0--------------------0----------------5------------------|

      fear that I might break. Out of touch, out of time.
db|----------------------0-------------0-----------0--------0-----------------|
db|----------------------0-------------0-----------0--------0-----------------|
Db|----------------------0-------------0-----------0--------0-----------------|
Db|----------------------7-------------2-----------4--------0-----------------|
Ab|----------------------5-------------0-----------2--------5-----------------|
Db|----------------------0-------------0-----------0--------5-----------------|

      Please send me anything but signals that are mixed because I can't
db|-0----------------0--------------------------0----------------0------------|
db|-0----------------0--------------------------0----------------0------------|
Db|-0----------------0--------------------------0----------------0------------|
Db|-7----------------2--------------------------4----------------0------------|
Ab|-5----------------0--------------------------2----------------5------------|
Db|-0----------------0--------------------------0----------------5------------|

      read your rolling eyes.  Out of touch, are we out of time? 
db|----------------------0------------0------------------0--------0-----------|
db|----------------------0------------0------------------0--------0-----------|
Db|----------------------0------------0------------------0--------0-----------|
Db|----------------------7------------2------------------4--------0-----------|
Ab|----------------------5------------0------------------2--------5-----------|
Db|----------------------0------------0------------------0--------5-----------|

      I'll wait until tomorrow, maybe you'll feel better then, maybe
db|-0-------------------0-------------------------0---------------------------|
db|-0-------------------0-------------------------0---------------------------|
Db|-0-------------------0-------------------------0---------------------------|
Db|-0-------------------0-------------------------7---------------------------|
Ab|-2-------------------5-------------------------5---------------------------|
Db|-2-------------------5-------------------------0---------------------------|

      we'll be better then.  So whats another day what I can't bear these
db|-------------0----------0------------------0-------------------------------|
db|-------------0----------0------------------0-------------------------------|
Db|-------------0----------0------------------0-------------------------------|
Db|-------------0----------0------------------0-------------------------------|
Ab|-------------7----------2------------------5-------------------------------|
Db|-------------7----------2------------------5-------------------------------|

      nights of thoughts of going on without you.  This mood of yours is
db|---0----------------------------------0-------0----------------------------|
db|---0----------------------------------0-------0----------------------------|
Db|---0----------------------------------0-------0----------------------------|
Db|---7----------------------------------0-------0----------------------------|
Ab|---5----------------------------------7-------2----------------------------|
Db|---0----------------------------------7-------2----------------------------|

      temporary, it seems worth the wait to see your smile again.   Out of
db|----0------------------0--------------------------------0------0-----------|
db|----0------------------0--------------------------------0------0-----------|
Db|----0------------------0--------------------------------0------0-----------|
Db|----0------------------7--------------------------------0------0-----------|
Ab|----5------------------5--------------------------------7------2-----------|
Db|----5------------------0--------------------------------7------2-----------|

      the corner of my eye won't be the only way you're looking at me then.
db|-------0-----------------------------0----------------------------0--------|
db|-------0-----------------------------0----------------------------0--------|
Db|-------0-----------------------------0----------------------------0--------|
Db|-------0-----------------------------7----------------------------0--------|
Ab|-------5-----------------------------5----------------------------7--------|
Db|-------5-----------------------------0----------------------------7--------|


      So quiet, another wasted night, the televison steals a conversation
db|-0---------------------------0--------------------0------------------------|
db|-0---------------------------0--------------------0------------------------|
Db|-0---------------------------0--------------------0------------------------|
Db|-0---------------------------4--------------------2------------------------|
Ab|-0---------------------------2--------------------0------------------------|
Db|-0---------------------------0--------------------0------------------------|

        Exhale,    another wasted breath, again it goes unnot - i - ced
db|-(0)--(0)---(0)-(0)-----------(0)------(0)------0----(0)----(0)--0----0~----|
db|-(0)--(0)---(0)-(0)-----------(0)------(0)------0----(0)----(0)--0----0~----|
Db|-(0)--(0)---(0)-(0)-----------(0)------(0)------0----(0)----(0)--0----0~----|
Db|-(0)--(0)---(0)-(0)-----------(4)------(4)------4----(2)----(2)--2----0~----|
Ab|-(0)--(0)---(0)-(0)-----------(2)------(2)------2----(0)----(0)--0----0~----|
Db|-(0)--(0)---(0)-(0)-----------(0)------(0)------0----(0)----(0)--0----0~----|
            

comments powered by Disqus
↑ Back to top | Dashboard Confessional Tabs for Again I Go Unnoticed. Lyrics for acoustic guitar and electric guitar. Tablatures and chords are parodies/interpretations of the original songs. You may use it for private study, scholarship, research or language learning purposes only