» » »

Darlene Zschech, Evermore Tabs (ver.1)

Artists:  A B C D E F G H I J K L M N O P Q R S T U V W X Y Z # 

Evermore Tabs (ver.1)

Darlene Zschech Tabs
 Rating:
4/5 (4 votes)
Evermore lessons Tabs too difficult? Try these video lessons and learn fast
                    
edited it...and i posted it here.

hi this is my 2nd tab i have made. This is d intro and solo and the chords of evermore. By the 
way im 12yr.old

tuning EADGBE
Intro:

---7-------------------7-------|
-----8--7b(8)---7/5------8--7~-|
-------------------------------| Im not rili sure on how many time it is 
-------------------------------|  repeated
-------------------------------|
-------------------------------|
Verse:
Em,C,G,D/F#

Bridge:
Em,G,D

Chorus:
G,D,C,Em,D/F#

Adlib:(After 2 chorus)
 Part1
-------------------------------------|---------------------------| 2x
------------10/121212------10/121212-|--7b(8)r7-7b(8)r7-7b(8)r7--|
-----7/999------------7/999----------|--------------------------7|
-------------------------------------|---------------------------|
-------------------------------------|---------------------------|
-------------------------------------|---------------------------|
Then:   Part2                                                  
----5---5--|----8---8--|-----7---7---|----5---5---|-----------------|then
-----5---5-|-----8---8-|------8---8--|-----5---5--|-7(8)r7---7(8)r7-|repeat
------5---5|------9---9|-------7---9-|------7---7-|--------7-------7|Part 2
--7--------|7/10-------|-10/9--------|-9/7--------|-----------------|all ovr 
-----------|-----------|-------------|------------|-----------------|again
-----------|-----------|-------------|------------|-----------------|

      Hope it helped (copyrighted by rolim stone's lead guitarist)
            
Submit corrections

comments powered by Disqus
↑ Back to top | Darlene Zschech Tabs for Evermore. Lyrics for acoustic guitar and electric guitar. Tablatures and chords are parodies/interpretations of the original songs. You may use it for private study, scholarship, research or language learning purposes only