» » »

Dark Water, Sweet Dreams Tabs (ver.2)

Artists:  A B C D E F G H I J K L M N O P Q R S T U V W X Y Z # 

Sweet Dreams Tabs (ver.2)

Dark Water Tabs
Rating:
0/5 (0 votes)
Sweet Dreams lessons Tabs too difficult? Try these video lessons and learn fast
                Guitarist 1: Jamie
Guiatrist 2: Mushroom

E ----------------------------------------
B ----------------------------------------
G ----------------------------------------
D ------5---6---5-------------------------
A --3-3---3---3-------6/8-----5/6---------
E ----------------4-4-----3-3------------- 

E ----------------------------------------
B ----------------------------------------
G ----------------------------------------
D ------5---6---5-------------------------
A --3-3---3---3-------6/8-----5/6---------
E ----------------4-4-----3-3------------- 

E -------------------------------------
B -------------------------------------
G -------------------------------------
D -------------------------------------
A -4-4-4-4-4-4-4-4---------------------
E -----------------4-4-4-4-3-3-3-3-----

E ----------------------------------------
B ----------------------------------------
G ----------------------------------------
D ------5---6---5-------------------------
A --3-3---3---3-------6/8-----5/6---------
E ----------------4-4-----3-3-------------
            

comments powered by Disqus
↑ Back to top | Dark Water Tabs for Sweet Dreams. Lyrics for acoustic guitar and electric guitar. Tablatures and chords are parodies/interpretations of the original songs. You may use it for private study, scholarship, research or language learning purposes only