» » »

Relic Tabs (ver.1)

Artists:  A B C D E F G H I J K L M N O P Q R S T U V W X Y Z # 

Relic Tabs (ver.1)

Dark Water
Rating:
0/5 (0 votes)

Hard to play? Try these video lessons and learn fast.
                Intro
E|---------------------------------------------|
B|---------------------------------------------|
G|-------0-------0-------0---------------------|
D|-----4-------5-------7-------0-------0-------|
A|---2-------3-------5-------4-------2-------0-|
E|-0-------0-------0-------5-----5\3-----3/5---|


Bridge
E|---------------------------------------|
B|---------------------------------------|
G|---------------------------------------|
D|-----5h7---5-5h7-5------5h7--5-5h7-5h7-|
A|-0-0-5h7---5-5h7-5--0-0-5h7--5-5h7-5h7-|
E|-0-0----------------0-0----------------|


Chorus
E|-----------------------------------|
B|------------------------------0-3--|
G|---------------------1------1------|
D|-----0-------2-----2------2--------|
A|---3-------2-----2----2-2----------|
E|-1-----1-4-----4------------------0-|


Outro			
E|-------------------------|---|
B|-----------------------5-|---|
G|---3-2---3-2------3-2----|---|
D|-------------3-----------|---|
A|-------------------------|---|
E|-4-----4--------4--------|-0-|
            
Hard to play? Try these video lessons and learn fast. | Correct




comments powered by Disqus
↑ Back to top | Tablatures and chords are parodies/interpretations of the original songs. You may use it for private study, scholarship, research or language learning purposes only