» » »

Position Impossible Tabs (ver.1)

Artists:  A B C D E F G H I J K L M N O P Q R S T U V W X Y Z # 

Position Impossible Tabs (ver.1)

Dark Water
Rating:
0/5 (0 votes)

Hard to play? Try these video lessons and learn fast.
                Guitarist 1: Jamie
Guitarist 2: Mushroom

(6notes with x under are deads)

Intro 

Guitar 1

E ---------------------------------
B ---------------------------------
G ---------------------------------
D -------------0-2-----------------
A -22-22-22-22-----22-22-22-22-0-1-
E ---------------------------------

Guitar 2

E ---------------------------------
B ---------------------------------
G ---------------------------------
D -------------0-2-----------------
A -22-22-22-22-----22-22-22-22-0-1-
E ---------------------------------
   xx xx xx xx x x xx xx xx xx x x

Main Riff

Guitars 1 & 2

E ---------------------------------
B ---------------------------------
G ---------------------------------
D -------------0-2-----------------
A -44-44-44-44-0-2-44-44-44-44-0-3-
E -22-22-22-22-----22-22-22-22-0-1-

Interlude

Guitars 1 & 2

E ---------------------------------
B ---------------------------------
G ---------------------------------
D -----0-4-------------------------
A -4-4-0-2-4-4-0-3-----------------
E -2-2-----2-2-0-1-----------------

Structure

Intro x2
Main riff x2
Interlude x2
Main riff x2
Interlude x2                      
Main riff x2
Interlude x2                      
Main riff x2
Interlude x2                      
Main riff x2
Interlude x2                      
Main riff x2
Interlude x2   
            
Hard to play? Try these video lessons and learn fast. | Correct




comments powered by Disqus
↑ Back to top | Tablatures and chords are parodies/interpretations of the original songs. You may use it for private study, scholarship, research or language learning purposes only