» » »

Dark Water, Nova Tabs (ver.1)

Artists:  A B C D E F G H I J K L M N O P Q R S T U V W X Y Z # 

Nova Tabs (ver.1)

Dark Water Tabs
Rating:
0/5 (0 votes)
Nova lessons Tabs too difficult? Try these video lessons and learn fast
                Guitar 1: Jamie
Guitar 2: 

Intro - Guitar 1 only
(clean)

E -----13----13-----13----13-----13----13-----
B --12-----------12-----------12--------------
G --------11-----------11-----------11-----0--(let last note ring)
D --------------------------------------------
A --------------------------------------------
E --------------------------------------------

Verse

E -----------------------------------------
B -----------------------------------------
G -----------------------------------------
D -0-10---10--0-10---10-0-10---10----------
A ------0----------0---------0-------------
E --------------------------------0--------

Chorus

E -----------------------------------------
B -----------------------------------------
G -----------------------------------------
D -2---0-----------------------------------
A ---3---2-3-0-0000-0h1-0h1-0000-0h1-0h1---
E -------------0000-0h1-0h1-0000-0h1-0h1---

E -----------------------------------------
B -----------------------------------------
G -2---0-----------------------------------
D -2-3-0-2-3-0-----------------------------
A ---3---2-3-0-0000-0h1-0h1-0000-0h1-0h1---
E -------------0000-0h1-0h1-0000-0h1-0h1---

Structure

Intro x2
Verse x3
Chorus x2
Verse x3
Chorus x2
Verse x3
Chorus x2
Verse x4
Chorus x6
            

comments powered by Disqus
↑ Back to top | Dark Water Tabs for Nova. Lyrics for acoustic guitar and electric guitar. Tablatures and chords are parodies/interpretations of the original songs. You may use it for private study, scholarship, research or language learning purposes only