» » »

Louie Louie Tabs (ver.1)

Artists:  A B C D E F G H I J K L M N O P Q R S T U V W X Y Z # 

Louie Louie Tabs (ver.1)

Dark Water
Rating:
0/5 (0 votes)

Hard to play? Try these video lessons and learn fast.
                
Intro

E|------------------------|
B|------------------------|
G|------------------------|
D|------------------------|
A|-------9-9-11-11-11-9-9-|
E|-9-9-9------------------|

Verse

E|-----------------------------------|
B|-----------------------------------|
G|-----------------------------------|
D|----------11-11--13--13--13--11-11-|
A|-11-11-11-9--9---11--11--11--9--9--|
E|-9--9--9---------------------------|

Chorus

E|-------------------------------------------------|
B|-------------------------------------------------|
G|-------------------------------------------------|
D|-------------11-11-11-11-13-13-13-13-11-11-11-11-|
A|-11-11-11-11-9--9--9--9--11-11-11-11-9--9--9--9--|
E|-9--9--9--9--------------------------------------|

Interlude

E|-------------------------------------------------|
B|-------------------------------------------------|
G|-------------------------------------------------|
D|-------------11-11----11-13-13-13-13-------11----|
A|-11----------9--9-----9--11-11-11-11-------9-----|
E|-9-----------------------------------------------|

HAPPY PLAYING!
            
Hard to play? Try these video lessons and learn fast. | Correct




comments powered by Disqus
↑ Back to top | Tablatures and chords are parodies/interpretations of the original songs. You may use it for private study, scholarship, research or language learning purposes only