» » »

China Tabs

Artists:  A B C D E F G H I J K L M N O P Q R S T U V W X Y Z # 

China Tabs

(ver. 1)
Dark Water Tabs
 Rating:
4/5 (4 votes)
    China lessons Tabs too difficult? Try these video lessons and learn fast
                
Intro

E |-12-12-12-12--9-9--7-7-9-|
B |-------------------------|
G |-------------------------|
D |-------------------------|
A |-------------------------|
E |-------------------------|

Verse

E |-----------------------|
B |-----------------------|
G |--7-7-7-7--------------|
D |--5-5-5-5--9-9--7-7--9-|
A |-----------7-7--5-5--7-|
E |-----------------------|

Chorus 

E |---------------------|
B |---------------------|
G |---------------------|
D |---------------------|
A |-8-8-8-8--5-5--3-3-5-|
E |-6-6-6-6--3-3--1-1-3-|
            
Submit corrections

↑ Back to top | Dark Water Tabs for China. Lyrics for acoustic guitar and electric guitar. Tablatures and chords are parodies/interpretations of the original songs. You may use it for private study, scholarship, research or language learning purposes only